8. Lucky You

Band : Deftones
Song : LUCKY YOU
Album : Deftones (2003)

Tabbed by: beto_zwitter
Date: 12 / 15 / 04
Tunning: G# C# F# B E G# C#

Credits for the tunning: Cros (xcrossx1@yahoo.com)
This song really don't have guitar, but here are some that you can play 
trogh the song.
The tunning is the same for all the songs on "Deftones" album, so you don't 
need to re-tune your guitar.

Intro (listen carefully for this, is the part when the song starts, and when 
Chino starts singing, until the chorus.
C#-----------------------------------------------------------------
G#-----------------------------------------------------------------
E------------------------------------------------------------------
B------------------------------------------------------------------
F#-------4-------4---4-------4----4-----4--------------------------
C#---4-4---4-44-4-4-4---44-4---4-4---4-4---4-----------------------
G#-----------------------------------------------------------------

Chorus (And if you're feeling lucky...)
C#-----------------------------------------------------------------
G#-----------------------------------------------------------------
E------------------------------------------------------------------
B------------------------------------------------------------------
F#-----------------------------------------------------------------
C#-----------------------------------------------------------------
G#--8~-----4~-----8~-----4~-----8~-----4~-----8~-----4~-----3~~~---

Break 1 (if we could name this part of this way) (If you feel lucky/if you 
feel loved)
C#-----------------------------------------------------------------
G#-----------------------------------------------------------------
E------------------------------------------------------------------
B------------------------------------------------------------------
F#-----------------------------------------------------------------
C#-----------------------------------------------------------------
G#--3~--------3~----------3~----------3~-----------3~-----------3~-
you can let ring the note or make some pickings but care that the pick don't 
be heard.

Break 2 (You've cross the walls Excelled)
C#-----------------------------------------------------------------
G#-----------------------------------------------------------------
E------------------------------------------------------------------
B------------------------------------------------------------------
F#-----------------------------------------------------------------
C#-----------------------------------------------------------------
G#--3~---4~-------3~---4~---------3~---4~--------3~---5~-----------

Chorus 2 (Now spread your wings and sail...)
C#----------------------------------------------------------------------
G#----------------------------------------------------------------------
E-----------------------------------------------------------------------
B-----------------------------------------------------------------------
F#----------------------------------------------------------------------
C#----------------------------------------------------------------------
G#--8~--------4~----------8~----------4~-----------8~-----------4~---3--<<--Don't 
let ring this last note.

Quiet part (same as intro)
C#-----------------------------------------------------------------
G#-----------------------------------------------------------------
E------------------------------------------------------------------
B------------------------------------------------------------------
F#-------4-------4---4-------4----4-----4--------------------------
C#---4-4---4-44-4-4-4---44-4---4-4---4-4---4-----------------------
G#-----------------------------------------------------------------

Chorus (So if you're feeling lucky...)
C#-----------------------------------------------------------------
G#-----------------------------------------------------------------
E------------------------------------------------------------------
B------------------------------------------------------------------
F#-----------------------------------------------------------------
C#-----------------------------------------------------------------
G#--8~-----4~-----8~-----4~-----8~-----4~-----8~-----4~--------

Chorus (And if you're feeling lucky...
C#-----------------------------------------------------------------
G#-----------------------------------------------------------------
E------------------------------------------------------------------
B------------------------------------------------------------------
F#-----------------------------------------------------------------
C#-----------------------------------------------------------------
G#--8~-----4~-----8~-----4~-----8~-----4~-----8~-----4~-----8~--- 4~

Break 2 (You've cross the walls Excelled)
C#-----------------------------------------------------------------
G#-----------------------------------------------------------------
E------------------------------------------------------------------
B------------------------------------------------------------------
F#-----------------------------------------------------------------
C#-----------------------------------------------------------------
G#--3~---4~-------3~---4~---------3~---4~--------3~---5~-----------

C#------------------------------------------------------------------------------------
G#------------------------------------------------------------------------------------
E-------------------------------------------------------------------------------------
B-------------------------------------------------------------------------------------
F#------------------------------------------------------------------------------------
C#------------------------------------------------------------------------------------
G#-3~---4~---3~---4~---3~---4~---3~---4~---3~---4~---3~---4~---3~---4~---3~---4~---3-- 
dont let ring this last note.

Well, this is basically all the parts that i can tab. if it seems so much 
simple, try using 3 strings chords (eg. 3-5-5)
I hope you like it.

Comments to beto_zwitter@hotmail.com

9. Bloody Cape

© www.deftonesworld.com

Tabbed by: Cross
7/10/03 
Email:xcrossx1@yahoo.com
I finally decided to release my tabs to the public (check the bottom for the 
reason why I didn't in the first place).

Tuning:Here is Stephen's REAL tuning G#,C#,F#,B,E,G#,C#. Thats 4 1/2 steps down
from regular tuning and 2 1/2 steps down for 7 string. I play these on a regular
Guitar so I don't have the extra C# but it still sounds 99-100% correct.

Effects: use chorus on intro. and for the verse chorus and bit of flanger.
Intro

C#|--------------------------------------------------------------------------|
G#|--------------------------------------------------------------------------|
E |-7-7-7-7-7-7-7-7-7-7-7-7-7-7-7--3-3-3-3-3-3-3-3-3-3-3-3-3-3-3-3-----------|
B |-0-0-0-0-0-0-0-0-0-0-0-0-0-0-0--0-0-0-0-0-0-0-0-0-0-0-0-0-0-0-0-----------|x2
F#|--------------------------------------------------------------------------|
C#|-7-7-7-7-7-7-7-7-7-7-7-7-7-7-7--3-3-3-3-3-3-3-3-3-3-3-3-3-3-3-3-----------|
G#|--------------------------------------------------------------------------|

Chorus
Part 1
C#|--------------------------------------------------------------------------|
G#|--------------------------------------------------------------------------|
E |--------------------------------------------------------------------------|
B |----------------------------------5-5-5-5-5-5-----------------------------|
F#|---4-4---4-4---4-4---4-4--5\4-4---5-5-5-5-5-5-----------------------------|
C#|---4-4---4-4---4-4---4-4--5\4-4---3-3-3-3-3-3-----------------------------|
G#|-0-2-2-0-2-2-0-2-2-0-2-2--3\2-2-0-----------------------------------------|

Part 2
C#|--------------------------------------------------------------------------|
G#|--------------------------------------------------------------------------|
E |--------------------------------------------------------------------------|
B |----------------------------------5-5-5-5/7-7-----------------------------|
F#|---4-4---4-4---4-4---4-4--5\4-4---5-5-5-5/7-7-----------------------------|
C#|---4-4---4-4---4-4---4-4--5\4-4---3-3-3-3/5-5-----------------------------|
G#|-0-2-2-0-2-2-0-2-2-0-2-2--3\2-2-0-----------------------------------------|

verse
                 Slide that 8 in there once in a while.
C#|--------------------------------------------------------------------------|
G#|--------------------------------------------------------------------------|
E |-7-7-7-7-7-7-7-7-7-7-7-7-7-7-7--3-3-3-3-3-3-3-3-3-3-3-3-3-3-3-3-----------|
B |-0-0-0-0-0-0-0-0-0-0-0-0-0-0-0--0-0-0-0-0-0-0-0-0-0-0-0-0-0-0-0-----------|
F#|--------------------------------------------------------------------------|
C#|-7-7-7-7-7-7-7/8\7-7-7-7-7-7-7--3-3-3-3-3-3-3-3-3-3-3-3-3-3-3-3-----------|
G#|--------------------------------------------------------------------------|

Breakdown
2:40
C#|--------------------------------------------------------------------------|
G#|--------------------------------------------------------------------------|
E |--------------------------------------------------------------------------|
B |--------------------------------------------------------------------------|
F#|---3/4-4---3/4-4---3/4-4---3/4-4---3/4-4---3/4-4---3/4-4---3/4-4----------|
C#|---3/4-4---3/4-4---3/4-4---3/4-4---3/4-4---3/4-4---3/4-4---3/4-4----------|
G#|-0h1/2-2-0h1/2-2-0h1/2-2-0h1/2-2-0h1/2-2-0h1/2-2-0h1/2-2-0h1/2-2----------|

Song Structure:

Intro 
Chorus x2
Verse  x4
Chorus x2
verse  x4
chorus x2
Breakdown x1
Verse  x2
part 1 of chorus with open C# and G# (little ones) x1
Breakdown x4

I tabbed this for all those real Deftones fans @ Deftonesworld.com check out 
their message board.

P.S. I would like to send out a BIG Fuck You to all you faggots that stole 
credit for my old tabs. 
Fuck You: 
Cenif (this guy deserves a MEGA FUCK YOU) cenif@hotmail.com 
Miguel Garzón knick_knack_666@hotmail.com
SAM ROWLANDS dead_evil4@hotmail.com  You NUTT BITING FAGGOTS
There were more but I guess reporting they're asses got them taken off before
I could get there info, Thieving biatchez.

| /  slide up
| \  slide down
| h  hammer-on
| p  pull-off
| ~  vibrato
| +  harmonic
| x  Mute note

===============================================================================

Tabbed by: NightFire99
Email: tyler__9@hotmail.com

h- hammer on 

Tuning: Drop A , down 1 1/2 steps:

Verse1:
C|----0----0--0-----0--0-----0--0--0--0----0--0----
G|----0----0--0-----0--0-----0--0--0--0----0--0----
E|----7----7--7-----7--7-----7--7--7--7----7--7----
B|-------------------------------------------------
F|----5----5--5-----5--5-----5--5--5--5----5--5----
C|----7----7--7-----7--7-----7--7--7--7----7--7----
F|-------------------------------------------------

C|----0----0--0-----0--0-----0--0--0--0----0-------
G|----0----0--0-----0--0-----0--0--0--0----0-------
E|----7----7--7-----7--7-----7--7--7--7----7\------
B|-------------------------------------------------
F|----5----5--5-----5--5-----5--5--5--5----5\------
C|----7----7--7-----7--7-----7--7--7--7----7\------
F|-------------------------------------------------

C|----0----0--0-----0--0-----0--0--0--0----0-------
G|----3----3--3-----3--3-----3--3--3--3----3-------
E|----3----3--3-----3--3-----3--3--3--3----3-------
B|----0----0--0-----0--0-----0--0--0--0----0-------
F|-------------------------------------------------
C|----3----3--3-----3--3-----3--3--3--3----3-------
F|-------------------------------------------------

C|----0----0--0-----0--0-----0--0--0--0------------
G|----3----3--3-----3--3-----3--3--3--3------------
E|----3----3--3-----3--3-----3--3--3--3------------
B|----0----0--0-----0--0-----0--0--0--0------------
F|-------------------------------------------------
C|----3----3--3-----3--3-----3--3--3--3------------
F|-------------------------------------------------

Verse2: 
C|----0----0--0-----0--0-----0--0--0--0----0--0----
G|----0----0--0-----0--0-----0--0--0--0----0--0----
E|----7----7--7-----7--7-----7--7--7--7----7--7----
B|-------------------------------------------------
F|----5----5--5-----5--5-----5--5--5--5----5--5----
C|----7----7--7-----7--7-----7--7--7--7----7--7----
F|-------------------------------------------------

C|----0----0--0-----0--0-----0--0--0--0----0-------
G|----0----0--0-----0--0-----0--0--0--0----0-------
E|----7----7--7-----7--7-----7--7--7--7----7-------
B|-------------------------------------------------
F|----5----5--5-----5--5-----5--5--5--5----5-------
C|----7----7--7-----7--7-----7--7--7--7----7-------
F|-------------------------------------------------

C|----0----0--0-----0--0-----0--0--0--0----0-------
G|----3----3--3-----3--3-----3--3--3--3----3-------
E|----3----3--3-----3--3-----3--3--3--3----3-------
B|----0----0--0-----0--0-----0--0--0--0----0-------
F|-------------------------------------------------
C|----3----3--3-----3--3-----3--3--3--3----3-------
F|-------------------------------------------------

C|----0----0--0-----0--0---------------------------
G|----3----3--3-----3--3---------------------------
E|----3----3--3-----3--3---------------------------
B|----0----0--0-----0--0---------------------------
F|-------------------------------------------------
C|----3----3--3-----3--3---------------------------
F|-------------------------------------------------

Verse3: 
C|---------------------------------------------------------------------
G|---------------------------------------------------------------------
E|---------------------------------------------------------------------
B|------------------------------------------5----5-5---5--5--5--5------
F|--2h4--4--7h4--4--2h4--4--7h4--4--7h4--7--5----5-5---5--5--5--5------
C|--2h4--4--7h4--4--2h4--4--7h4--4--7h4--7--3----3-3---3--3--3--3------
F|--2h4--4--7h4--4--2h4--4--7h4--4--7h4--7-----------------------------

C|--------------------------------------------------------------------
G|--------------------------------------------------------------------
E|--------------------------------------------------------------------
B|------------------------------------------5----5-5---5--5--5/7--7---
F|--2h4--4--7h4--4--2h4--4--7h4--4--7h4--7--5----5-5---5--5--5/7--7---
C|--2h4--4--7h4--4--2h4--4--7h4--4--7h4--7--3----3-3---3--3--3/5--5---
F|--2h4--4--7h4--4--2h4--4--7h4--4--7h4--7----------------------------

Bridge:
C|-------------------------------------------------------
G|-------------------------------------------------------
E|-------------------------------------------------------
B|---4--6--6----4--6--6----4--6--6----4--6--6------------
F|---2--4--4----2--4--4----2--4--4----2--4--4------------
C|---2--4--4----2--4--4----2--4--4----2--4--4------------
F|---2--4--4----2--4--4----2--4--4----2--4--4------------

C|-------------------------------------------------------
G|-------------------------------------------------------
E|-------------------------------------------------------
B|---4--6--6----4--6--6----4--6--6----4--6--6------------
F|---2--4--4----2--4--4----2--4--4----2--4--4------------
C|---2--4--4----2--4--4----2--4--4----2--4--4------------
F|---2--4--4----2--4--4----2--4--4----2--4--4------------

Song Order:  
Verse1
Verse2
Verse3 - 2x
Verse1 - 3x
Verse2
Verse3 - 2x
Verse1 - 3x
Verse2
Verse3 - 2x
Bridge 
Verse3
Bridge - 3x

10. Anniversary Of An Uninteresting Event (Piano Score)

“Anniversary of An Uninteresting Event” by Max Charlton
www.deftonesworld.com

--------------------------------------------------------------------------------------

Intro (listen to song for timings, its ¾ or check the music)

E|-------------------------------------------------------------------------------------|

B|--1-----1-------1-------1--1---------------------1----1----1------1--1---------------|

G|----0-----0-------0-2------------------------------0----0----0-2---------------------|

D|-----------------------------------2~--2~--2--2-----------------------------2~--0~---|

A|-------------------------------------------------------------------------------------|

E|-------------------------------------------------------------------------------------|

It gets kind of hard to hear, but this is the piano sheet tabbed out:

(Slur the first three notes, and play them very lightly and check the music sheet 
for timings or figure it out)

E|-----------------------5-3-1---0~-0~---1--1--1--3-1-1---0~-----3-1-1-----

B|--1~----1~----3~-----------------------3--3--3---------------3~----------

G|----------------5~-------------------------------------------------------

D|-------------------------------------------------------------------------

A|-------------------------------------------------------------------------

E|-------------------------------------------------------------------------

It may not sound right to you, but listen closely to the piano and according to the sheet music 
this is exactly what it plays.

E|------------------------------------------|

B|--1----1----1------1-1--------------------|

G|----0----0----0-2--------3--3--4-4-0~-----| 

D|-------------------------2--3--0-0-2-~----|               X2

A|------------------------------------------|

E|------------------------------------------|

E|-------------3~--0--5-3-1----------------------|

B|--1~---3~--------------------1~----------------|

G|-----------------------------------------------|

D|-----------------------------------------------|                wait 2 bars then repeat.

A|-----------------------------------------------|

E|-----------------------------------------------|

There is a bass part as well, as seen on the sheet music but I don’t know bass and therefore 
cant help you but hopefully a bassist can….Also….it sounds better on a clean channel, 
or maybe even an acoustic. 

***********************************************************************************************

Tabbed by: beto_zwitter
12 / 14 / 04
Tunning: G# C# F# B E G# C#

Credits for the tunning: Cros (xcrossx1@yahoo.com)
This song really don't have guitar, if you hear, the song is on piano, but 
if you don't have a pianist, or a piano,
you can play along the song (again with the "Deftones" album tunning) with 
your guitar.

Intro (When  the saong starts)
C#-------------------------------------------------------------------------------- 
(I play on a 6 strings, so i don't use this string)
G#--4-----4------4-----4--4------------------4-----4-------4-----4--4-------------
E-----3-----3------3-5---------0~--0~--0--0----3-----3-------3-5---------0~-------
B----------------------------------------------------------------------------3~---
F#--------------------------------------------------------------------------------
C#--------------------------------------------------------------------------------
G#--------------------------------------------------------------------------------

next the intro you play this:
C#-----------------------------------------------------------------------------
G#------------------------13-11-9---8~-8~---9--9--9--11-9-9---8~-------11-9-9--
E---8~----8~----10~--8~--------------------10-10-10----------------10~---------
B------------------------------------------------------------------------------
F#-----------------------------------------------------------------------------
C#-----------------------------------------------------------------------------
G#-----------------------------------------------------------------------------

Then, if you listen the song, (of course, the piano part) this is the thing 
that is playing:
C#-----------------------------------------------------------------
G#--4---4----4-----4-4---2--2--3-3--------------------------------- Play 
this part 2 times
E-----3---3----3-5-------0--1------3~------------------------------
B------------------------------3-3-5~------------------------------
F#-----------------------------------------------------------------
C#-----------------------------------------------------------------
G#-----------------------------------------------------------------

Then play this part, wait a moment (listen closely to the song) and play 
again.
C#-----------------------------------------------------------------
G#-4~---6~---11~--8--13-11-9---4~----------------------------------
E------------------------------------------------------------------
B------------------------------------------------------------------
F#-----------------------------------------------------------------
C#-----------------------------------------------------------------
G#-----------------------------------------------------------------

Well, this is basically all the parts that i can tab.
I hope you like it. Yopu can play on an acoustic (as I do, and it hears so 
good) ar a electric (clean effect)
What a beatiful song!!!! One of the best of the "DEFTONES".
Comments to beto_zwitter@hotmail.com

11. Moana

Deftones - "Moana"

Tabbed by: Cross
7/16/03
Email:xcrossx1@yahoo.com
I finally decided to release my tabs to the public (check the bottom for the 
reason why I didn't in the first place).

Tuning: Here is Stephen's REAL tuning G#,C#,F#,B,E,G#,C#. Thats 4 1/2 steps down
from regular tuning and 2 1/2 steps down for 7 string. I play these on a regular
Guitar so I don't have the extra C# but it still sounds 99-100% correct.

Intro
C#|--------------------------------------------------------------------------|
G#|--------------------------------------------------------------------------|
E |-----------------------------------------14--14-14-14--14-14-14--14-14----|
B |-14--14-14-14--14-14-14--14-14-14--14-14--x---x--x--x---x--x--x---x--x----|
F#|--x---x--x--x---x--x--x---x--x--x---x--x-12--12-12-12--12-12-12--12-12----|
C#|-12--12-12-12--12-12-12--12-12-12--12-12----------------------------------|
G#|--------------------------------------------------------------------------|

Verse 
*                           I couldn't fit the last 2 but there are 16 each
C#|--------------------------------------------------------------------------|
G#|--------------------------------------------------------------------------|
E |---------------------------------14-14-14-14-14-14-14-14-14-14-14-14-14-14|
B |-9-9-9-9-9-9-9-9-9-9-9-9-9-9-9-9--x--x--x--x--x--x--x--x--x--x--x--x--x--x|
F#|-7-7-7-7-7-7-7-7-7-7-7-7-7-7-7-7-12-12-12-12-12-12-12-12-12-12-12-12-12-12|
C#|-7-7-7-7-7-7-7-7-7-7-7-7-7-7-7-7------------------------------------------|
G#|--------------------------------------------------------------------------|

Verse  
**
C#|----0-------0-------0-------0-------0-------------------------------------|
G#|----0-------0-------0-------0-------0-------------------------------------|
E |----------------------------------------14--14-14-14--14-14-14--14-14-----|
B |-----------------------------------------x---x--x--x---x--x--x---x--x-----|
F#|-7--7-7-7-7-7-7-7-7-7-7-7-7-7-7-7-7-7---12--12-12-12--12-12-12--12-12-----|
C#|-7--7-7-7-7-7-7-7-7-7-7-7-7-7-7-7-7-7-------------------------------------|
G#|-5--5-5-5-5-5-5-5-5-5-5-5-5-5-5-5-5-5-------------------------------------|
Verse 
***                          
C#|----0-------0-------0-------0-------0-------------------------------------|
G#|----0-------0-------0-------0-------0-------------------------------------|
E |---------------------------------------14--14-14-14--14-14-14--14-14/16-16|
B |----------------------------------------x---x--x--x---x--x--x---x--x/-x--x|
F#|-7--7-7-7-7-7-7-7-7-7-7-7-7-7-7-7-7-7--12--12-12-12--12-12-12--12-12/14-14|
C#|-7--7-7-7-7-7-7-7-7-7-7-7-7-7-7-7-7-7-------------------------------------|
G#|-5--5-5-5-5-5-5-5-5-5-5-5-5-5-5-5-5-5-------------------------------------|

Chorus
*
C#|--------------------------------------------------------------------------|
G#|--------------------------------------------------------------------------|
E |--------------------------------------------------------------------------|
B |-11-11-11-11-11-11-11-11-9-9-9-7-10---------------------------------------|
F#|-11-11-11-11-11-11-11-11-9-9-9-7-10---------------------------------------|
C#|--9--9--9--9--9--9--9--9-7-7-7-5--8---------------------------------------|
G#|--9--9--9--9--9--9--9--9--------------------------------------------------|

Chorus
**             The open C# and G# are optional.
C#|-0-0-0-0--0--0-0-0-0--0--0-0-0-0--0--0-0-0-0--0---------------------------|
G#|-0-0-0-0--0--0-0-0-0--0--0-0-0-0--0--0-0-0-0--0---------------------------|
E |--------------------------------------------------------------------------|
B |-9-9-9-7-10--9-9-9-7-10--9-9-9-7-10--9-9-9-7-10---------------------------|
F#|-9-9-9-7-10--9-9-9-7-10--9-9-9-7-10--9-9-9-7-10---------------------------|
C#|-7-7-7-5--8--7-7-7-5--8--7-7-7-5--8--7-7-7-5--8---------------------------|
G#|--------------------------------------------------------------------------|

End with this:     and a pick slide. 
C#|----|
G#|----|
E |-9--|
B |-9--|
F#|-7--|
C#|-7--|
G#|-0--|

Song Structure:
Intro x6
Verse * x4
Verse ** x1
Verse *** x1
Chorus * x4
Chorus ** x1
Verse * x4
Verse ** x1
Verse *** x1
Chorus * x4
Chorus ** x1
Intro x4
Verse ** x1
Verse *** x1
Verse ** x1
Verse *** x1
Verse ** x1
Verse *** x1
Chorus * x4
Chorus ** x2
End

P.S. I would like to send out a BIG Fuck You to all you faggots that stole 
credit for my old tabs. 
Fuck You: 
Cenif (this guy deserves a MEGA FUCK YOU) cenif@hotmail.com 
Miguel Garzón knick_knack_666@hotmail.com
SAM ROWLANDS dead_evil4@hotmail.com  You NUTT BITING FAGGOTS
There were more but I guess reporting they're asses got them taken off before
I could get there info, Thieving biatchez.

| /  slide up
| \  slide down
| h  hammer-on
| p  pull-off
| ~  vibrato
| +  harmonic
| x  Mute note

===============================================================================

Tabbed by :Anthony C. for www.deftonesworld.com
Email:teemsleep@msn.com

tunning = Drop D
/ = slide
x = palm mute
* = let it ring

<Listen to the song for the Rhythm> 

Intro

Guitar 1               Guitar 2
G|--6-----11--|         |----------6---|
D|--x------x--|          |---7--7-------|
A|--4------9--|         |----------------| 
D|--x------x--|         |----------------|

Somehow calm...
e|-----------------|                          
B|-----------------|                          
G|------------11--|   
D|--11------x----|   
A|--11------9----|            
D|--11------x----|                           

show me...Come!!
G|---12----|
D|----x-----|
A|----10---|
D|----x----|

Let me know what youre like...
D|--8-/-6-/-4-/-6-/-7-/-6  }
A|--8-/-6-/-4-/-6-/-7-/-6  } 3x
D|--8-/-6-/-4-/-6-/-7-/-6  }

D|--8--|  |--/-6-/-4-/-6-/-7-/-6-| }
A|--8--|  |--/-6-/-4-/-6-/-7-/-6-| }-4x
D|--8--|  |--/-6-/-4-/-6-/-7-/-6-| }

I bet she carves...
e|-----------------|                          
B|-----------------|                          
G|------------11--|   
D|--11------x----|   
A|--11------9----|            
D|--11------x----|

show me...now! 
G|---12----|
D|----x-----|
A|----10---|
D|----x----|

Let me know what youre like...
D|--8-/-6-/-4-/-6-/-7-/-6  }
A|--8-/-6-/-4-/-6-/-7-/-6  } 3x
D|--8-/-6-/-4-/-6-/-7-/-6  }

D|--8--|   |--/-6-/-4-/-6-/-7-/-6-| }
A|--8--|   |--/-6-/-4-/-6-/-7-/-6-| }-8x
D|--8--|   |--/-6-/-4-/-6-/-7-/-6-| }

G|--6-----11--|        
D|--x------x--|         
A|--4------9--|          
D|--x------x--|         

Somehow calm...
e|-----------------|                          
B|-----------------|                            
G|------------11-|    
D|--11------x----|     
A|--11------9----|                          
D|--11------x----|                          

Show me ...come
G|---12----|
D|----x-----|
A|----10---|
D|----x----|

Let me know what youre like...
D|--8-/-6-/-4-/-6-/-7-7  }
A|--8-/-6-/-4-/-6-/-7-7  } 3x
D|--8-/-6-/-4-/-6-/-7-7  }

D|--8----/-6-/-4-/-6-/-7-/-6-| }
A|--8----/-6-/-4-/-6-/-7-/-6-| }-8x
D|--8----/-6-/-4-/-6-/-7-/-6-| }

End on this... (/// = pik slide )
D|--11*---////////////|
A|--11*---////////////|  
D|--11*---////////////|

1. Back to School

 

BAND:  Deftones
ALBUM: White Pony
SONG:  Back to School

By: ChIsUs >> RxMaScArArx@aol.com

Complex of way of understanding the tuning:
string 1. C#
string 2. G#
string 3. E
string 4. B
string 5. F#
string 6. B

More simply, from standard tuning, Drop the sixth string to D and then drop 
all strings down 1 1/2 steps. this gives you drop d tuning in the absolute 
pitch of B.

If you don’t want to tune down to B, that’s fine. If you just drop your 
sixth string down to D, you’ll just be in dropped D tuning in the pitch of E, 
instead of the pitch of B.

Into riff: 2x (slight dirty with high treble dist. strum pick on the bridge 
or over the treble (rear) pickup to get the scratchy strumming sounds.)
------------------------------------------------------------
--------------------------------10-10-10-----10----10
10--10--10----10----10-------------------------------
---------------------------------7---7---7-------7-----7
8-----8----8-----8------8--------------------------------
------------------------------------------------------------

Chorus/bridge/coda: 8x
--------------------------    
-----------10---10---10
10-10---10---10---10
8----0-----7----7-----7
8----0-----0----0-----0
8----0-----0----0-----0

Verse: 4x (hit all the notes and especially the opens as hard as you can with 
your pick in order to achieve the "bwah" sound)
-----------------------------------
-----------------------------------
-----------------------------------
-----------------------------------
------------------------------------
5--5-5--4--4--8--0--0-0--0--0-0

Chorus: 8x
---------------------------------------13----------------------
11-11-11---11--------------------13------8-8-8---8-----7-7-7---4
10-10-10---10-----10-10-10---10------7-7-7---7-----6-6-6---4
 8---8---8-----8-----10-10-10---10------5-5-5---5-----4-4-4---4
 8---8---8-----8------0---0---0----0-------5-5-5---5-----4-4-4---4
 8---8---8-----8------------------------------5-5-5---5-----4-4-4---4

			#########################
			# www.deftonesworld.com #            
			#########################

2. Feiticeira

 

BAND:  Deftones
ALBUM: White Pony
SONG:  FEITICEIRA

By: ChIsUs >> RxMaScArArx@aol.com

standard tuning, but tuned down to C or B.  
*x*=harmonic 
a/b\a= bend 1 half step (or  one fret). ex: bend a to b then back to a. ( a 
/b\ x )
/= standard up slide
\=standard down slide

Intro/verse2: 8x
---------------- *9*  ------------------------------- *9*
---------------- *9*  ------------------------------- *9*
11-11-11-11 *11*  ------------------------------ *11*
11-11-11-11 *11*  11-11-11-11-11----------- *11
 9---9--9---9   *9*   9---9--9---9---9-----------  *9*
-------------------------------------------00-7-0-0-7-

main riff/chorus:8
------------------ ---------------------------------------
---------------------------------------- -----------------
11-11-11-11-11-11-11-11-11-11-11-11-----------
11-11-11-11-11-11-11-11-11-11-11-11--11-----8
 9---9--9---9--9--9---9---9--9---9--9---9--11-----8  
 0---0--0---0--0--0---0---0--0---0--0---0---9--0--6-0

Interlude:
-----------------------
-----------------------
10-10/11\10---------
10-10/11\10--11-11
 8---8----------11-11
------------------9--8

Outro: there are 14 beats in each measure. you hit one chord for every beat. 
except where beats 13 and 14 would be, you only hit one chord. so, instead of 
one chord per beat, for beats 13 and 14 you play one chord for those two 
beats. the notes you play only once (on beats 13 and 14) are italicized.
-----------------------------------------
------------------------------------------
 9----------------------------------------
10-----10/11\10----10-------10-10----
10-----10/11\10----10-------10-10----
 8------8----------------8---------9--8----
 --------------------------9-----------------

			#########################
			# www.deftonesworld.com #            
			#########################

3. Digital Bath

 

Artist: Deftones
Title:Digital Bath
Album: White Pony

By:Brandon Blake
To: www.deftonesworld.com

Tuning: Dropped D then whole step down (CGCFAD)

verse main riff (light distortion with reverb)
D|-----------------------------------|
A|-----------------------------------|
F|------- ----------------------------|
C|---7-------7-0------------------| 8x
G|--4-------4-0------------------|
C|--4-------4-0-------------------|

verse fill-in (1)
D|----------------|--------------------------------------------------------------|
A|----------------|--7-------7----10-10-------13-12-------------------------------------|
F|-----------------|-------------------------- 
------------------------------------|
C|---7--7--------|--4-------4-----7---7-------10--9--------------------------------------| 
2x
G|--4--0---------|--------------------------------------------------------------|
C|--4--0---------|---------------------------------------------------------------|

verse Fill-in (2)
D|--------------------------------------------------------------------|
A|--------------------------------------------------------------------|
F|--------------------------------------------------------------------|2x
C|--------------------------------------------------------------------|
G|------------------7^1/2-----7--------5-------------------------------------|
C|-------3--------------------------------------------------------------|

Chorus
repeat verse main riff but with full distortion and end on C5 the first time

on the second chorus you do the same but you add in fill-ins 1 & 2

and that is pretty much the song  just listen for the rhythems and the 
changes and you'll be fine

.

Comments, corrections: chinoscrib@hotmail.com
===============================================================================

4. Elite

 

BAND:  Deftones
ALBUM: White Pony
SONG:  ELITE

D|-------------------|-----------------|
A|------------------*|-----------------|
F|-----------------x3|-----------------|
C|-0-2-0-2-3-2-0-2--*|-0-3---3-0-8---8-|
G|-0-2-0-2-3-2-0-2---|-0-3---3-0-8---8-|
C|-0-2-0-2-3-2-0-2---|-0-3---3-0-8---8-|

Intro #2

D|-----------------|
A|-----------------|
F|---------4-------|
C|-0-2-0-2-3-------|
G|-0-2-0-2-3-------|
C|-0-2-0-2---------|

Verse

D|-------------------|-----------------|-------------------|-----------------|
A|------------------*|-----------------|------------------*|-----------------|
F|-----------------x3|-----------------|-----------------x3|-----------------|
C|------------------*|-----------------|------------------*|-----------------|
G|---------3---------|-----------------|---------3---------|-----------------|
C|-0-2-0-2---2-0-2---|-0-3---3-0-8---8-|-0-2-0-2---2-0-2---|-0-3/----0-8\----|

Chorus 

D|---------|-------------------|  |---|-------------------|
A|---------|------------------*|  |-0-|------------------*|
F|-8-8-8-8-|---------4-------x2|x3|-0-|---------4-------x4|
C|-5-5-5-5-|-0-2-0-2-3--------*|  |-3-|-0-2-0-2-3--------*|
G|-5-5-5-5-|-0-2-0-2-3---------|  |---|-0-2-0-2-3---------|
C|-5-5-5-5-|-0-2-0-2-----------|  |---|-0-2-0-2-----------|

D|-------------------|-----------------|
A|------------------*|-----------------|
F|-----------------x8|-----------------|
C|------------------*|-----------------|
G|---------3---------|-----------------|
C|-0-2-0-2---2-0-2---|-2---------------|

			###################################
			# http://planeta.clix.pt/deftones #            
			###################################

5. Rx Queen

 

BAND:  Deftones
ALBUM: White Pony
SONG:  RX QUEEN

D|------------|
A|------------|
F|------------|
C|------------|
G|------------|
C|-0-2-2-/9-3-|

Chorus

D|-------------------------|
A|-------------------------|
F|-4-4-4-4-4---7-7-7-7-7---|
C|-2-2-2-2-2-0-5-5-5-5-5-0-|
G|-2-2-2-2-2-0-5-5-5-5-5-0-|
C|-2-2-2-2-2-0-5-5-5-5-5-0-|

			###################################
			# http://planeta.clix.pt/deftones #            
			###################################

6. Street Carp

 

BAND:  Deftones
ALBUM: White Pony
SONG:  STREET CARP

Intro
D|-------------------------------------------|
A|-------------------------------------------|
F|-------------------------------------------|
C|-9-9-9-9-9-9-9-9-9/13-13-13-13-13-13-13/12-|
G|-9-9-9-9-9-9-9-9-9/13-13-13-13-13-13-13/12-|
C|-9-9-9-9-9-9-9-9-9/13-13-13-13-13-13-13/12-|

Verse
D|---------------------------------------------------------------------------------|
A|---------------------------------------------------------------------------------|
F|---------------------------------------------------------------------------------|
C|-6-7-6-0-6-9-6-0-6-7-6-0-6-9-6-0-11-11-11-11-11-11-11-11-11-15-15-15-15-15-15-15-|
G|-6-7-6-0-6-9-6-0-6-7-6-0-6-9-6-0-------------------------------------------------|
C|-6-7-6-0-6-9-6-0-6-7-6-0-6-9-6-0-9--9--9--9--9--9--9--9--9--13-13-13-13-13-13-13-|

Chorus
D|-------------------------------------------------|
A|-------------------------------------------------|
F|-------------------------------------------------|
C|-6-6-6-6-6-6-6-6-6-6-6-6-6-9-9-2-2-2-2-2-2-2-2-2-|
G|-6-6-6-6-6-6-6-6-6-6-6-6-6-9-9-2-2-2-2-2-2-2-2-2-|
C|-6-6-6-6-6-6-6-6-6-6-6-6-6-9-9-2-2-2-2-2-2-2-2-2-|

Chorus #2
D|-----------------|
A|-----------------|
F|-----------------|
C|-----------------|
G|-----------------|
C|-6-7-6-0-6-9-6-0-|

			###################################
			# http://planeta.clix.pt/deftones #            
			###################################