1. Back to School

 

BAND:  Deftones
ALBUM: White Pony
SONG:  Back to School

By: ChIsUs >> RxMaScArArx@aol.com

Complex of way of understanding the tuning:
string 1. C#
string 2. G#
string 3. E
string 4. B
string 5. F#
string 6. B

More simply, from standard tuning, Drop the sixth string to D and then drop 
all strings down 1 1/2 steps. this gives you drop d tuning in the absolute 
pitch of B.

If you don’t want to tune down to B, that’s fine. If you just drop your 
sixth string down to D, you’ll just be in dropped D tuning in the pitch of E, 
instead of the pitch of B.

Into riff: 2x (slight dirty with high treble dist. strum pick on the bridge 
or over the treble (rear) pickup to get the scratchy strumming sounds.)
------------------------------------------------------------
--------------------------------10-10-10-----10----10
10--10--10----10----10-------------------------------
---------------------------------7---7---7-------7-----7
8-----8----8-----8------8--------------------------------
------------------------------------------------------------

Chorus/bridge/coda: 8x
--------------------------    
-----------10---10---10
10-10---10---10---10
8----0-----7----7-----7
8----0-----0----0-----0
8----0-----0----0-----0

Verse: 4x (hit all the notes and especially the opens as hard as you can with 
your pick in order to achieve the "bwah" sound)
-----------------------------------
-----------------------------------
-----------------------------------
-----------------------------------
------------------------------------
5--5-5--4--4--8--0--0-0--0--0-0

Chorus: 8x
---------------------------------------13----------------------
11-11-11---11--------------------13------8-8-8---8-----7-7-7---4
10-10-10---10-----10-10-10---10------7-7-7---7-----6-6-6---4
 8---8---8-----8-----10-10-10---10------5-5-5---5-----4-4-4---4
 8---8---8-----8------0---0---0----0-------5-5-5---5-----4-4-4---4
 8---8---8-----8------------------------------5-5-5---5-----4-4-4---4

			#########################
			# www.deftonesworld.com #            
			#########################

2. Feiticeira

 

BAND:  Deftones
ALBUM: White Pony
SONG:  FEITICEIRA

By: ChIsUs >> RxMaScArArx@aol.com

standard tuning, but tuned down to C or B.  
*x*=harmonic 
a/b\a= bend 1 half step (or  one fret). ex: bend a to b then back to a. ( a 
/b\ x )
/= standard up slide
\=standard down slide

Intro/verse2: 8x
---------------- *9*  ------------------------------- *9*
---------------- *9*  ------------------------------- *9*
11-11-11-11 *11*  ------------------------------ *11*
11-11-11-11 *11*  11-11-11-11-11----------- *11
 9---9--9---9   *9*   9---9--9---9---9-----------  *9*
-------------------------------------------00-7-0-0-7-

main riff/chorus:8
------------------ ---------------------------------------
---------------------------------------- -----------------
11-11-11-11-11-11-11-11-11-11-11-11-----------
11-11-11-11-11-11-11-11-11-11-11-11--11-----8
 9---9--9---9--9--9---9---9--9---9--9---9--11-----8  
 0---0--0---0--0--0---0---0--0---0--0---0---9--0--6-0

Interlude:
-----------------------
-----------------------
10-10/11\10---------
10-10/11\10--11-11
 8---8----------11-11
------------------9--8

Outro: there are 14 beats in each measure. you hit one chord for every beat. 
except where beats 13 and 14 would be, you only hit one chord. so, instead of 
one chord per beat, for beats 13 and 14 you play one chord for those two 
beats. the notes you play only once (on beats 13 and 14) are italicized.
-----------------------------------------
------------------------------------------
 9----------------------------------------
10-----10/11\10----10-------10-10----
10-----10/11\10----10-------10-10----
 8------8----------------8---------9--8----
 --------------------------9-----------------

			#########################
			# www.deftonesworld.com #            
			#########################

3. Digital Bath

 

Artist: Deftones
Title:Digital Bath
Album: White Pony

By:Brandon Blake
To: www.deftonesworld.com

Tuning: Dropped D then whole step down (CGCFAD)

verse main riff (light distortion with reverb)
D|-----------------------------------|
A|-----------------------------------|
F|------- ----------------------------|
C|---7-------7-0------------------| 8x
G|--4-------4-0------------------|
C|--4-------4-0-------------------|

verse fill-in (1)
D|----------------|--------------------------------------------------------------|
A|----------------|--7-------7----10-10-------13-12-------------------------------------|
F|-----------------|-------------------------- 
------------------------------------|
C|---7--7--------|--4-------4-----7---7-------10--9--------------------------------------| 
2x
G|--4--0---------|--------------------------------------------------------------|
C|--4--0---------|---------------------------------------------------------------|

verse Fill-in (2)
D|--------------------------------------------------------------------|
A|--------------------------------------------------------------------|
F|--------------------------------------------------------------------|2x
C|--------------------------------------------------------------------|
G|------------------7^1/2-----7--------5-------------------------------------|
C|-------3--------------------------------------------------------------|

Chorus
repeat verse main riff but with full distortion and end on C5 the first time

on the second chorus you do the same but you add in fill-ins 1 & 2

and that is pretty much the song  just listen for the rhythems and the 
changes and you'll be fine

.

Comments, corrections: chinoscrib@hotmail.com
===============================================================================

4. Elite

 

BAND:  Deftones
ALBUM: White Pony
SONG:  ELITE

D|-------------------|-----------------|
A|------------------*|-----------------|
F|-----------------x3|-----------------|
C|-0-2-0-2-3-2-0-2--*|-0-3---3-0-8---8-|
G|-0-2-0-2-3-2-0-2---|-0-3---3-0-8---8-|
C|-0-2-0-2-3-2-0-2---|-0-3---3-0-8---8-|

Intro #2

D|-----------------|
A|-----------------|
F|---------4-------|
C|-0-2-0-2-3-------|
G|-0-2-0-2-3-------|
C|-0-2-0-2---------|

Verse

D|-------------------|-----------------|-------------------|-----------------|
A|------------------*|-----------------|------------------*|-----------------|
F|-----------------x3|-----------------|-----------------x3|-----------------|
C|------------------*|-----------------|------------------*|-----------------|
G|---------3---------|-----------------|---------3---------|-----------------|
C|-0-2-0-2---2-0-2---|-0-3---3-0-8---8-|-0-2-0-2---2-0-2---|-0-3/----0-8\----|

Chorus 

D|---------|-------------------|  |---|-------------------|
A|---------|------------------*|  |-0-|------------------*|
F|-8-8-8-8-|---------4-------x2|x3|-0-|---------4-------x4|
C|-5-5-5-5-|-0-2-0-2-3--------*|  |-3-|-0-2-0-2-3--------*|
G|-5-5-5-5-|-0-2-0-2-3---------|  |---|-0-2-0-2-3---------|
C|-5-5-5-5-|-0-2-0-2-----------|  |---|-0-2-0-2-----------|

D|-------------------|-----------------|
A|------------------*|-----------------|
F|-----------------x8|-----------------|
C|------------------*|-----------------|
G|---------3---------|-----------------|
C|-0-2-0-2---2-0-2---|-2---------------|

			###################################
			# http://planeta.clix.pt/deftones #            
			###################################

5. Rx Queen

 

BAND:  Deftones
ALBUM: White Pony
SONG:  RX QUEEN

D|------------|
A|------------|
F|------------|
C|------------|
G|------------|
C|-0-2-2-/9-3-|

Chorus

D|-------------------------|
A|-------------------------|
F|-4-4-4-4-4---7-7-7-7-7---|
C|-2-2-2-2-2-0-5-5-5-5-5-0-|
G|-2-2-2-2-2-0-5-5-5-5-5-0-|
C|-2-2-2-2-2-0-5-5-5-5-5-0-|

			###################################
			# http://planeta.clix.pt/deftones #            
			###################################

6. Street Carp

 

BAND:  Deftones
ALBUM: White Pony
SONG:  STREET CARP

Intro
D|-------------------------------------------|
A|-------------------------------------------|
F|-------------------------------------------|
C|-9-9-9-9-9-9-9-9-9/13-13-13-13-13-13-13/12-|
G|-9-9-9-9-9-9-9-9-9/13-13-13-13-13-13-13/12-|
C|-9-9-9-9-9-9-9-9-9/13-13-13-13-13-13-13/12-|

Verse
D|---------------------------------------------------------------------------------|
A|---------------------------------------------------------------------------------|
F|---------------------------------------------------------------------------------|
C|-6-7-6-0-6-9-6-0-6-7-6-0-6-9-6-0-11-11-11-11-11-11-11-11-11-15-15-15-15-15-15-15-|
G|-6-7-6-0-6-9-6-0-6-7-6-0-6-9-6-0-------------------------------------------------|
C|-6-7-6-0-6-9-6-0-6-7-6-0-6-9-6-0-9--9--9--9--9--9--9--9--9--13-13-13-13-13-13-13-|

Chorus
D|-------------------------------------------------|
A|-------------------------------------------------|
F|-------------------------------------------------|
C|-6-6-6-6-6-6-6-6-6-6-6-6-6-9-9-2-2-2-2-2-2-2-2-2-|
G|-6-6-6-6-6-6-6-6-6-6-6-6-6-9-9-2-2-2-2-2-2-2-2-2-|
C|-6-6-6-6-6-6-6-6-6-6-6-6-6-9-9-2-2-2-2-2-2-2-2-2-|

Chorus #2
D|-----------------|
A|-----------------|
F|-----------------|
C|-----------------|
G|-----------------|
C|-6-7-6-0-6-9-6-0-|

			###################################
			# http://planeta.clix.pt/deftones #            
			###################################

7. Teenager

 

BAND:  Deftones
ALBUM: White Pony
SONG:  TEENAGER

Riff #1 

D|------------|--------------|------------|-----------|
A|------------|--------------|------------|-----------|
F|------------|--------------|------------|-----------|
C|-------6--8-|------6----6--|-------6--4-|-----4/6-4-|
G|----4-------|---4----------|---4--------|---4-------|
C|-4----------|-4------------|-4----------|-4---------|

Riff #2
D|------------|--------------|------------|-----------|
A|---------11-|--------------|------------|-----------|
F|------13----|--------------|------13-11-|-----------|
C|---11-------|--------------|---11-------|-----------|
G|-9----------|---9-13/15-13-|-9----------|---9--11-9-|
C|------------|-9------------|------------|-9---------|

			###################################
			# http://planeta.clix.pt/deftones #            
			###################################

8. Knife Prty

 

BAND:  Deftones
ALBUM: White Pony
SONG:  KNIFE PARTY

Intro

D|-------------------------------------------------------------------|
A|-------------------------------------------------------------------|
F|---5---5-5-5-5-5---5-5-5-5-5---5-5-5---5-5-5-5-5---5-5-5-5-5---5-/-|
C|---3---3-3-3-3-3---3-3-3-3-3---3-3-3---3-3-3-3-3---3-3-3-3-3---3-/-|
G|---3---3-3-3-3-3---3-3-3-3-3---3-3-3---3-3-3-3-3---3-3-3-3-3---3-/-|
C|-------------------------------------------------------------------|

D|-------------------------------------------------------------------|
A|-------------------------------------------------------------------|
F|-------------------------------------------------------------------|
C|---9---9-9-9-9-9---9-9-9-9-9---9-9-10--101010109---9-9-9-9-9---9-\-|
G|---7---7-7-7-7-7---7-7-7-7-7---7-7-7---7-7-7-7-7---7-7-7-7-7---7-\-|
C|---7---7-7-7-7-7---7-7-7-7-7---7-7-7---7-7-7-7-7---7-7-7-7-7---7-\-|

Verse

D|-------------------------------------------------------------------|
A|---5--5--5--5--5---5--5--5--5--5-----------------------------------|
F|---5--5--5--5--5---5--5--5--5--5-----------------------------------|
C|---3--3--3--3--3---3--3--3--3--3-/-9--9--9--9--9---10-10-9--9--9---|
G|---3--3--3--3--3---3--3--3--3--3-/-7--7--7--7--7---7--7--7--7--7---|
C|---3--3--3--3--3---3--3--3--3--3-/-7--7--7--7--7---7--7--7--7--7---|

Background

D|-----------------------------------|
A|-----------------------------------|
F|-------------------10-10-9--9--9---|
C|---9--9--9--9--9---7--7--7--7--7---|
G|---7--7--7--7--7---7--7--7--7--7---|
C|---7--7--7--7--7---7--7--7--7--7---|

Chorus

D|-------------------------------------------------------------------|
A|-------------------------------------------------------------------|
F|-----------------------------------10-10-9--9--9-999--9--9--9--9---|
C|---8--8--8--8--8---8--8--8--8--8---x--x--x--x--x-xxx--x--x--x--x---|
G|---8--8--8--8--8---8--8--8--8--8---8--8--7--7--7-777-/8-\7--7--7---|
C|---8--8--8--8--8---8--8--8--8--8-----------------------------------|

D|-------------------------------------------------------------------|
A|-------------------------------------------------------------------|
F|-------------------------------------------------------------------|
C|---8--8--8--8--8---8--8--8--8--8---0-------------------------------|
G|---8--8--8--8--8---8--8--8--8--8---0-------------------------------|
C|---8--8--8--8--8---8--8--8--8--8---0-------------------------------|

Bridge

D|-----|--1--|
A|--1--|--3--|
F|--2--|--2--|
C|--2--|--3--|
G|--0--|--0--|
C|-----|--0--|

			###################################
			# http://planeta.clix.pt/deftones #            
			###################################

9. Korea

Artist: Deftones
Title: Korea
Album: White Pony

By:Yardan Cohen/Brandon Blake
To: www.deftonesworld.com

Tuning: Dropped D then whole step down (CGCFAD)
Everything is in exact rhythm except bridge

Intro
D|---------------------------------------------------------------------------|
A|---------------------------------------------------------------------------|
F|------- 
-------------------------6-6-6-6-------------------------------------------|
C|-9-9-9-9-9-9-9-9-9-9-9-9---------------------------------------------------|
G|-6-6-6-6-6-6-6-6-6-6-6-6-5-5-5-5-------------------------------------------|
C|---------------------------------------------------------------------------|

Chorus (Palm mute all marked with ^ and stop all strings when marked with *)
D|---------------------------------------------------------------------------|
A|---------------------------------------------------------------------------|
F|-- 
---------6---6-----------6---6-----------6---6-----------------------------|
C|-0-0---0---------0-0---0---------0-0---0---------9-9-9-9-9-9-9-9-----------|
G|-0-0---0-5---5---0-0---0-5---5---0-0---0-5---5---6-6-6-6-6-6-6-6-----------|
C|-0-0---0---------0-0---0---------0-0---0-----------------------------------|
   ^     ^   *     ^     ^   *     ^     ^   *
Fill in
D|---------------------------------------------------------------------------|
A|---------------------------------------------------------------------------|
F|-6-6-6-6-------------------------------------------------------------------|
C|---------------------------------------------------------------------------|
G|-5-5-5-5-------------------------------------------------------------------|
C|---------------------------------------------------------------------------|

Verse
D|---------------------------------------------------------------------------|
A|---------------------------------------------------------------------------|
F|------  
------------------------6-6-6-6---------------------------------6-6-6-6|
C|-9-9-9-9-9-9-9-9-9-9-9-9---------9-9-9-9-9-9-9-9-9-9-9-9-------------------|
G|-6-6-6-6-6-6-6-6-6-6-6-6-5-5-5-5-6-6-6-6-6-6-6-6-6-6-6-6-5-5-5-5-----------|
C|---------------------------------------------------------------------------|

Verse (con't.)
D|---------------------------------------------------------------------------|
A|---------------------------------------------------------------------------|
F|------- 
-------------------------6-6-6-6-------------------------------------------|
C - - 
9-9-9-9-9-9-9-9-9-9-9-9---------9-9-9-9-9-9-9-9-9-9-9-9-0-0---------------|
G| 
6-6-6-6-6-6-6-6-6-6-6-6-5-5-5-5-6-6-6-6-6-6-6-6-6-6-6-6-0-0---------------|
C|------------------------------------------------------------------------- 
0-0---------------|
                                                      p.m. ^

Bridge
D|---------------------------------------------------------------------------|
A|---------------------------------------------------------------------------|
F|-------------------------------------------------                  
3-3-3-3-3-3-3-3-----------|
C|-0-0-0-0-0-0-0-0-7-7-7-7-7-7-7-7-5-5-5-5-5-5-5-5-3-3-3-3-3-3-3-3-----------|
G|-0-0-0-0-0-0-0-0-7-7-7-7-7-7-7-7-5-5-5-5-5-5-5-5-1-1-1-1-1-1-1-1-----------|
C|-------------------------------------------------                   
1-1-1-1-1-1-1-1-----------|

Bridge 2 (the rythem is the same as the first bridge)
D|---------------------------------------------------------------------------|
A|---------------------------------------------------------------------------|
F|---------------------------------------------------------------------------|
C|-0---------------7---------------5---------------1-------------------------|
G|-0---------------7---------------5---------------1-------------------------|
C|-0---------------7---------------5---------------1-------------------------|

Order of song:
Intro: 2x
Chorus: 4x
Fill in: 1x
Verse: 2x
Chorus: 2x
Fill in: 1x
Verse: 2x
Chorus: 4x
Bridge: 4x
Bridge 2: 8x
Chorus: 4x

Only play C|-9-| one time on last chorus
          G|-6-|

I'm 100% sure this is right except for both bridges.

Comments, corrections: nofxkid23@hotmail.com
===============================================================================

10. Passenger

 

BAND:  Deftones
ALBUM: White Pony
SONG:  PASSENGER

Intro/Verse
D|-----------------------------------------------------------------------------|
A|-----------10-10-10-10-----------8-8-8-8-----------6-6-6-6-----------6-6-6-6-|
F|-----------------------------------------------------------------------------|
C|-----------7--7--7--7------------5-5-5-5-----------4-4-4-4-----------4-4-4-4-|
G|-----------------------------------------------------------------------------|
D|-4-4-4-4-4-------------4-4-4-4-4---------4-4-4-4-4---------4-4-4-4-4---------|

Slow Riff

D|--------------|
A|----------7---|
F|------------5-|
C|-----5--------|
G|---9----------|
C|-9------9-----|

Bridge

D|--------|
A|--------|
F|--------|
C|-0-(32x)| 
G|-0------|
C|-0------|

Chorus

D|-------------------------------------------------|
A|-------------------------------------------------|
F|-------------------------------------------------|
C|-7-7-7-7-7-7-6-6-6-6-6-6-5-5-5-5-5-5-4-4-4-4-4-4-|
G|-4-4-4-4-4-4-4-4-4-4-4-4-4-4-4-4-4-4-4-4-4-4-4-4-|
C|-4-4-4-4-4-4-4-4-4-4-4-4-4-4-4-4-4-4-4-4-4-4-4-4-|

D|-------------------------------------------------------|
A|-------------------------------------------------------|
F|---------------7-----------------------9---------------|
C|-----4-4-4-4-4---4-4-4-4-4-9-4-4-4-4-4---4-4-4-4-4-----|
G|-----4-4-4-4-4---4-4-4-4-4---4-4-4-4-4---4-4-4-4-4-----|
C|-2^r-4-4-4-4-4---4-4-4-4-4---4-4-4-4-4---4-4-4-4-4-2^r-|

Slow Riff

D|--------------|
A|----------7---|
F|------------5-|
C|-----5--------|
G|---9----------|
C|-9------9-----|

Verse

D|---|--------------|-----5----7---|
A|-9-|--------------|------------7-|  
F|---|--------------|-9------------|  
C|---|-----5--------|--------9-----|  
G|---|---9------9-5-|--------------|
C|---|-9------9-----|---9----------|

End

D|---|
A|---|
F|-6-|
C|-5-|
G|-5-|
C|-5-|

			###################################
			# http://planeta.clix.pt/deftones #            
			###################################