1. My Own Summer (shove it)

Guitar - My own summer (shove it)
=================================
Tune (low to high): c#/g#/c#/f#/a#/d#
Credits to: Munky161 (loco666@t-online.de)

Verse
|-------------------------------------|
|-------------------------------------|
|-------------------------------------|
|-------------------------------------|
|-------------------------------------|
|-0-11-12-0-11\8-0-8-0-8\7-0-8-5--(5)-|

Chorus
|----------------------------------|
|----------------------------------|
|----------------------------------|
|-0-7-8-0-8-5-0-5-0-5/7-0-8-4--(4)-|
|-0-7-8-0-8-5-0-5-0-5/7-0-8-4--(4)-|
|-0-7-8-0-8-5-0-5-0-5/7-0-8-4--(4)-|

Verse, Chorus

Bridge
|---------------------------------------------------------------|
|---------------------------------------------------------------|
|-10101010101010101010101010101010----------0-------------0-0---|
|--8-8-8-8-8-8-8-8-8-8-8-8-8-8-8-8--5-5-5-8-0---5-5-5-8-8-0-0---|
|--8-8-8-8-8-8-8-8-8-8-8-8-8-8-8-8--5-5-5-8-0---5-5-5-8-8-0-0---|
|--8-8-8-8-8-8-8-8-8-8-8-8-8-8-8-8--5-5-5-8-0---5-5-5-8-8-0-0---|

Breakdown
Let ring the open strings from the bridge, until the feedback ends. Then make sparely some soft harmonics, especially on the 4-5th frets of the two sharpest strings. On some points u should also put your left hands softly muting the strings on the 5th fret, while your right hand pics the three sharpest strings on the 1st fret.

Chorus, Bridge

Bridge End
|---------0-------------0-0---|
|---------0-------------0-0---|
|---------0-------------0-0---|
|-5-5-5-8-0---5-5-5-8-8-0-0---|
|-5-5-5-8-0---5-5-5-8-8-0-0---|
|-5-5-5-8-0---5-5-5-8-8-0-0---|

Chorus

2. Lhabia

Guitar - Lhabia
===============
Tune (low to high): c#/g#/c#/f#/a#/d#
Credits to: DeftoneSnake (ncakathrift@hotmail.com)

Verse
|---------------------------------------------------------------------|
|---------------------------------------------------------------------|
|---------------------------------------------------------------------|
|-0-2-2-2--0-2-2-2--0-2-2-2-2-3-3-3-0-2-2-2--0-2-2-2--0-2-2-2-2-0-0-0-|
|-0-2-2-2--0-2-2-2--0-2-2-2-2-------0-2-2-2--0-2-2-2--0-2-2-2-2-0-0-0-|
|-0-2-2-2--0-2-2-2--0-2-2-2-2-------0-2-2-2--0-2-2-2--0-2-2-2-2-0-0-0-|

Chorus
|--------------------|
|--------------------|
|--------------------|
|--------------------|
|-4h6-6-6-66---7---2-|
|-4h6-6-6-66---7---2-|
|-4h6-6-6-66---7---2-|

Verse, Chorus

Bridge
|----------------------------------------------------------|
|----------------------------------------------------------|
|-9-9-9-9-9-9-9-9-9-9-9-9-8-8-8-8-8-8-8-8-8-8-8------------|
|-7-7-7-7-7-7-7-7-7-7-7-7-6-6-6-6-6-6-6-6-6-6-6-2-2----0-0-|
|-7-7-7-7-7-7-7-7-7-7-7-7-6-6-6-6-6-6-6-6-6-6-6-2-2----0-0-|
|-7-7-7-7-7-7-7-7-7-7-7-7-6-6-6-6-6-6-6-6-6-6-6-2-2----0-0-|

Outro
|--------------------|
|--------------------|
|--------------------|
|-4h6-6-6--xx-7-xx-2-|
|-4h6-6-6--xx-7-xx-2-|
|-4h6-6-6--xx-7-xx-2-|

Verse, Chorus, Bridge

3. Mascara

www.deftonesworld.com
DEFTONES - "Around the Fur"
--------------------------------------
Guitar - Mascara
================
Tune (low to high): c#/g#/c#/f#/a#/d#
Credits to: evilkrop@hotmail.com

Light-verse
|---------------------|
|---------------------|
|-----------------{5}-|
|-----------5---------|
|-5/8-7---4---7-4-----|
The note in {} is played only every 4th time.

Verse
|---------------------|
|---------------------|
|-----------------{5}-|
|-----------5---5-----|
|-5/8-7---4---7-4-----|
The note in {} is played only on the 2nd verse, on the 4th time.

Light-verse

Chorus
|---------------------------------|
|---------------------------------|
|---------------------------------|
|-8-8-8-8-8-8-8-8-4-4-4-2-4-4-2-4-|
|-8-8-8-8-8-8-8-8-4-4-4-2-4-4-2-4-|
|-8-8-8-8-8-8-8-8-4-4-4-2-4-4-2-4-|

Verse, Chorus

Breakdown
|---------------------------------|---------------------------------|
|---------------------------------|---------------------------------|
|---------------------------------|---------------------------------|
|-8-8-8-8-8-8-8-8-4-4-4-2-4-4-2-4-|-8-8-8-8-8-8-8-8--4--------------|
|-8-8-8-8-8-8-8-8-4-4-4-2-4-4-2-4-|-8-8-8-8-8-8-8-8--4--------------|
|-8-8-8-8-8-8-8-8-4-4-4-2-4-4-2-4-|-8-8-8-8-8-8-8-8--4--------------|

Outro
|---|------------|
|---|------------|
|-1-|-1----------|
|-1-|----1-------|
|-1-|-------1----|
|-2-|----------2-|

4. Around The Fur

Guitar - Around the fur
=======================
Tune (low to high): c#/g#/c#/f#/a#/d#
Credits to: bash

Verse (palm mute)
|------------------------------------|
|------------------------------------|
|------------------------------------|
|-7-7-7-7-7----7-7-7-5-5-5-5-6-6-6-6-|
|-5-5-5-5-5----5-5-5-3-3-3-3-6-6-6-6-|
|-0-0-0-0-0------------------6-6-6-6-|
<<<<<<<<<<<<<<<<<<pm>>>>>>>>>>>>>>>>>>

Verse Variation
|------------------------------------|
|------------------------------------|
|-7-7-7-7-7--------------------------|
|-7-7-7-7-7----7-7-7-5-5-5-5-6-6-6-6-|
|-5-5-5-5-5----5-5-5-3-3-3-3-6-6-6-6-|
|-0-0-0-0-0------------------6-6-6-6-|
               <<<<<<<<<pm>>>>>>>>>>

Pre-Chorus
|-0-|
|-0-|
|-0-|
|-0-|
|-0-|
|-0-|

Chorus
|----------------------------------------------------|---|
|----------------------------------------------------|---|
|---------------------------------------6-6--6-6-6-6-|---|
|-0--0--0-0-0-3-3-3-3--3-3-3-4-4-4--4-4-6-6--6-6-6-6-|-0-|
|-0--0--0-0-0-3-3-3-3--3-3-3-4-4-4--4-4-4-4--4-4-4-4-|-0-|
|-0--0--0-0-0-3-3-3-3--3-3-3-4-4-4--4-4--------------|-0-|

Interlude
Let the ring all the strings open, and let the feedback sound. At 2:24, you start playing this:
|-----------------------------------------------------------------------------|
|-----------------------------------------------------------------------------|
|-----------------------------------------------------------------------------|
|-------------------------------------4---------------------------------------|
|---------------------5------------------6--4-5-------------------------------|
|--6--------------------------------------------------------6-----------------|

|-----------------------------------------------------------------------------|
|-----------------------------------------------------------------------------|
|-----------------------------------------------------------------------------|
|-------------------------------------4---------------------------------------|
|--5-------------------------------------6--4-5-------------------------------|
|---------------------6------------------------------------6------------------|

Ending
|---------------------------------|--------|----------------------|
|---------------------------------|--------|----------------------|
|-------------------5-5-5-5-------|--------|----------------------|
|-0-0-0-0-0-0-0-0-0-5-5-5-5-6-6-6-|--------|----4-----------------|
|-0-0-0-0-0-0-0-0-0-3-3-3-3-6-6-6-|--0--0--|-------6--4-5---------|
|-0-0-0-0-0-0-0-0-0---------6-6-6-|--0--0--|-------------------6--|
                                     <pm>

5. Rickets

Guitar - Rickets
================
Tune (low to high): c#/g#/c#/f#/a#/d#
Credits to: Ralph Vanstreels (@)

Chorus
|-----------------------------|
|-----------------------------|
|-----------------------------|
|-3-2-0-3-2-0-3-0-6-6-6-1-1-1-|
|-3-2-0-3-2-0-3-0-6-6-6-1-1-1-|
|-3-2-0-3-2-0-3-0-6-6-6-1-1-1-|

Fill 1 (flanger and distortion heavy effectors)
|------------------------|
|------------------------|
|------------------------|
|------------------------|
|------------------------|
|-3p2p0-0-3p2p0-0-3-00---|

Fill 2 (palm mute)
This little thing is played only once, at 0:15.
|-----|
|-----|
|-----|
|-----|
|-0-0-|
|-0-0-|
  <pm>

Main-fill (flanger and distortion heavy effectors)
|----------------------------|
|----------------------------|
|----------------------------|
|----------------------------|
|----------------------------|
|-3p2p0-0-3p2p0-0-3-0-66666\-|

Verse (palm-mute)
|-----------------|
|-----------------|
|-----------------|
|-----------------|
|-2p0-0-2p0-00--0-|
|-2p0-0-2p0-00--0-|
  <<<<<<<pm>>>>>>

Main-fill, Chorus, Verse, Main-fill, Chorus

Breakdown
This breakdown has two guitars on the album version:
|---|------------------------------|-----------------|----------------------------------------|
|---|-7--------------7-------------|-7-7-7-7-7-7-7-7-|-7-7-7-7-7-7-7-7-7-7-7-7-7-7-///xxx//xx-|
|-0-|-7--------------7-------------|-7-7-7-7-7-7-7-7-|-7-7-7-7-7-7-7-7-7-7-7-7-7-7-///xxx//xx-|
|-0-|-7--------------7-------------|-7-7-7-7-7-7-7-7-|-7-7-7-7-7-7-7-7-7-7-7-7-7-7-///xxx//xx-|
|-0-|-5--------------5-------------|-5-5-5-5-5-5-5-5-|-5-5-5-5-5-5-5-5-5-5-5-5-5-5-///xxx//xx-|
|-0-|------------------------------|-----------------|----------------------------------------|

|---|------------------------------|-----------------|-----------------------0----------------|
|---|--------7---------------------|-----------------|-----------------------0----------------|
|-0-|----------8-6-----------------|-----------------|-----------------------0----------------|
|-0-|------------------------------|-----------------|-----------------------0----------------|
|-0-|------------------------------|-2p0-0-2p0-00--0-|-----------------------0----------------|
|-0-|------------------------------|-2p0-0-2p0-00--0-|-----------------------0----------------|
                                     <<<<<<<pm>>>>>>

Since deftones doesnt have two guitars when playing live, here's how to play it with only one guitar. Note: on the heavy part, with 2p0s, palm-mute only the two loudest strings.
|---|-2------2-------2-------------|-x-x-x-x-x-xx--x-|-2-2-2-2-2-2-2-2-2-2-2-0-2-2-///xxx//xx-|
|---|-3--------4-2---3-------------|-3-3-3-3-3-33--3-|-3-3-3-3-3-3-3-3-3-3-3-0-3-3-///xxx//xx-|
|-0-|-2--------------2-------------|-2-2-2-2-2-22--2-|-2-2-2-2-2-2-2-2-2-2-2-0-2-2-///xxx//xx-|
|-0-|-0--------------0-------------|-x-x-x-x-x-xx--x-|-0-0-0-0-0-0-0-0-0-0-0-0-0-0-///xxx//xx-|
|-0-|------------------------------|-2p0-0-2p0-00--0-|-----------------------0----------------|
|-0-|------------------------------|-2p0-0-2p0-00--0-|-----------------------0----------------|
                                     <<<<<<<pm>>>>>>

Chorus

6. Be Quiet And Drive (far away)

Guitar - Be quiet and drive (far away)
======================================
Tune (low to high): c#/g#/c#/f#/a#/d#

Chorus
|-0----0----0----0----9----9----9----9-|
|-9----9----9----9----7----7----7----7-|
|-7----7----7----7----7----7----7----7-|
|-0--0-0--0-0--0-0----0--0-0--0-0--0-0-|
|--------------------------------------|
|--------------------------------------|

Intro-fill
|-0----0----0----0----9----9-\\------|
|-9----9----9----9----7----7-\\------|
|-7----7----7----7----7----7-\\------|
|-0--0-0--0-0--0-0----0--0-0-\\------|
|------------------------------------|
|------------------------------------|

Verse
|------------------------------------------------------------------|
|------------------------------------------------------------------|
|-11----11-11----1111----11-11------11----11-12\---1111----11-12\--|
|--x-----x--x-----x-x-----x--x------11----11-12\---1111----11-12\--|
|--9-----9--9-----9-9-----9--9-------9-----9--9-----9-9-----9--9---|
|--0-----0--0-----0-0-----0--0-------9-----9--9-----9-9-----9--9---|

Verse Variation
This variation comes in at 0:40, 1:25, 2:20.
There are several other little variations on the strumming rythm both on verse and bride, but those are absolutely incidental and are not followed not even by deftones themselves while playing live.
|------------------------------------------------------------------|
|------------------------------------------------------------------|
|-11/12-12-12/14-14-14/12-12-12\11--11----11-12\---1111----11-12\--|
|--x/-x--x--x/-x--x--x/-x--x--x--x--11----11-12\---1111----11-12\--|
|--9/10-10-10/12-12-12/10-10-10\-9---9-----9--9-----9-9-----9--9---|
|------------------------------------9-----9--9-----9-9-----9--9---|

Bridge
|------------------------------------------------------------------|
|------------------------------------------------------------------|
|-11^---11^------1111----11^--------11----11-12\---1111----11-12\--|
|--x-----x--------x-x-----x---------11----11-12\---1111----11-12\--|
|--9^----9^-------9-9-----9^---------9-----9--9-----9-9-----9--9---|
|----(0)-----(0)------(0)------------9-----9--9-----9-9-----9--9---|

Verse, Chorus, Bridge, Verse, Chorus, Bridge

Outro
|----------------------------------------------------|
|----------------------------------------------------|
|----------------------------------------------------|
|-0-0-*4-*4-*4--0-0-*6-*6-*6--0-0-*4-*4-*4---3/44/55-|
|-0-0-*4-*4-*4--0-0-*6-*6-*6--0-0-*4-*4-*4---3/44/55-|
|-0-0-*4-*4-*4--0-0-*6-*6-*6--0-0-*4-*4-*4---3/44/55-|

|----------------------------------------------------|
|----------------------------------------------------|
|----------------------------------------------------|
|-0-0-*4-*4-*4--0-0-*4-*4-*4--0-0-*6-*6-*6---3/44/55-|
|-0-0-*4-*4-*4--0-0-*4-*4-*4--0-0-*6-*6-*6---3/44/55-|
|-0-0-*4-*4-*4--0-0-*4-*4-*4--0-0-*6-*6-*6---3/44/55-|

|----------------------------------------------------|
|----------------------------------------------------|
|----------------------------------------------------|
|-0-0---0-0--0---0-0--0-0--0--0-0-*4-*4-*4---3/44/55-|
|-0-0---0-0--0---0-0--0-0--0--0-0-*4-*4-*4---3/44/55-|
|-0-0---0-0--0---0-0--0-0--0--0-0-*4-*4-*4---3/44/55-|
        <<pm>>             <<pm>>

|----------------------------------------------------|
|----------------------------------------------------|
|----------------------------------------------------|
|-0-0-*4-*4-*4--0-0-*6-*6-*6--0-0-*4-*4-*4---3/44/55-|
|-0-0-*4-*4-*4--0-0-*6-*6-*6--0-0-*4-*4-*4---3/44/55-|
|-0-0-*4-*4-*4--0-0-*6-*6-*6--0-0-*4-*4-*4---3/44/55-|

Bridge

7. Lotion

www.deftonesworld.com
DEFTONES - "Around the Fur"
--------------------------------------
Guitar - Lotion
===============
Tune (low to high): c#/g#/c#/f#/a#/d#
Credits to: c0z420 (coz200059@hotmail.com)

Pre-Verse (chorus effector)
|--3----3----3----3--|
|--0----0----0----0--|
|--0-0--0-0--0-0--0--|
|--0-0--0-0--0-0--0--|
|--------------------|
|--------------------|

Verse
|----------------------------------3----3----3----3--|
|----------------------------------0----0----0----0--|
|----------------------------------0-0--0-0--0-0--0--|
|--0h1-1-1--0h1-1-1--0-1-1--0-1-1--0-0--0-0--0-0--0--|
|--0h1-1-1--0h1-1-1--0-1-1--0-1-1--------------------|
|--0h1-1-1--0h1-1-1--0-1-1--0-1-1--------------------|
                                   <<chorus effect>>

Verse-fill
|------------------------------|
|------------------------------|
|------------------------------|
|--0h1-1--0h1-1--0h1-1--0h1-1--|
|--0h1-1--0h1-1--0h1-1--0h1-1--|
|--0h1-1--0h1-1--0h1-1--0h1-1--|

Chorus
|------------------------------------|
|------------------------------------|
|------------------------------------|
|--4-4--4-4--4-4p0--5-5--5-5--5-5p0--|
|--4-4--4-4--4-4p0--5-5--5-5--5-5p0--|
|--4-4--4-4--4-4p0--5-5--5-5--5-5p0--|

Pre-verse, Verse, Verse-fill, Chorus

Bridge
|-----------------|
|-----------------|
|-----------------|
|--444444-45-4p0--|
|--444444-45-4p0--|
|--444444-45-4p0--|
   <<pm>>

Pre-verse, Verse, Verse-fill, Chorus, Bridge

OUTRO
|------------------|
|------------------|
|------------------|
|--0h44-44-44-4p0--|
|--0h44-44-44-4p0--|
|--0h44-44-44-4p0--|

Pre-verse, Verse, Verse-fill, Chorus, Bridge, Outro

8. Dai The Flu

Guitar - Be quiet and drive (far away)
======================================
Tune (low to high): c#/g#/c#/f#/a#/d#
Credits to: aviolentfluid

Verse
Use an ultra-loud effector with loud reverb, and set your guitar to have as much feedback as possible, then simply let that microphony/feedback sound, without playing anything.

Chorus
|--------------------------------------|----|
|-----------------10101010101010101010-|----|
|-9-9-8-9-9-8-9-8--9-9-9-9-9-9-9-9-9-9-|----|
|-7-7-6-7-7-6-7-6--9-9-9-9-9-9-9-9-9-9-|-11-|
|-7-7-6-7-7-6-7-6--9-9-9-9-9-9-9-9-9-9-|--9-|
|-7-7-6-7-7-6-7-6--9-9-9-9-9-9-9-9-9-9-|----|

Verse, Chorus, Verse, Chorus

Bridge
|-----------------------------------------------------------|
|-----------------------------------------------------------|
|-------------------------------------------5-5-5-5-5-5-5-5-|
|-2-2-2-2--2-2-2-5-5-5-5--5-5-6-6-6-6--6-6--5-5-5-5-5-5-5-5-|
|-2-2-2-2--2-2-2-5-5-5-5--5-5-6-6-6-6--6-6--3-3-3-3-3-3-3-3-|
|-2-2-2-2--2-2-2-5-5-5-5--5-5-6-6-6-6--6-6------------------|

Interlude
Use a echo effector on the maximum, and you should only play the first chord and the other would echo. This part should be played with two guitars, one with the effector, and the other doing the second little fill, with distortion. However Stef himself, while playing live, usually sacrifices a little of the echo to do the 2nd guitar fill.
|----------------------|-------------|
|----------------------|-------------| 
|----------------------|-------------| 
|----------------------|-5-5-5-6-6-6-|
|-2-(2)(2)(2)(2)(2)(2)-|-5-5-5-6-6-6-|
|-2-(2)(2)(2)(2)(2)(2)-|-5-5-5-6-6-6-|

Bridge variation
On the album, from 3:55 to 4:06, the Bridge is played one octave higher.
|-------------------------|
|-------------------------|
|--//9--//12--//13--//17--|
|-------------------------|
|--//7--//10--//11--//15--|
|-------------------------|

9. Headup

Guitar - Headup
===============
Tune (low to high): c#/g#/c#/f#/a#/d#
Credits to: Chris (chino_7_dust@hotmail.com)

Intro
|---------------------|
|---------------------|
|---------------------|
|---------------------|
|---------------------|
|-3-2-0-2-0-2-0-2-0-2-|

Verse
|---------------------|
|---------------------|
|---------------------|
|-3-2-0-2-0-2-0-2-0-2-|
|-3-2-0-2-0-2-0-2-0-2-|
|-3-2-0-2-0-2-0-2-0-2-|

Intro, Verse
|---------------------------------------------|
|---------------------------------------------|
|---------------------------------------------|
|-9-9--9-9--9/10-10-10/12--9-9--9-9---*9---/3-|
|-9-9--9-9--9/10-10-10/12--9-9--9-9---*9---/3-|
|-9-9--9-9--9/10-10-10/12--9-9--9-9---*9---/3-|

Verse, Chorus

Bridge
|----------------------------------|
|----------------------------------|
|----------------------------------|
|-2-2-2-2-2-2-/7-7-3-3-3-3-3-3-3-3-|
|-2-2-2-2-2-2-/7-7-3-3-3-3-3-3-3-3-|
|-2-2-2-2-2-2-/7-7-3-3-3-3-3-3-3-3-|

Outro
|---------------------|
|---------------------|
|---------------------|
|-3-2-x-2-0-2-0-2-0-2-|
|-3-2-x-2-0-2-0-2-0-2-|
|-3-2-x-2-0-2-0-2-0-2-|

ENDING
For this part, the guitar is lightly distorted, vague & pendulant. You could simply mess around with the following notes:
|---------|
|-0-------|
|---0-----|
|-----1---|
|-------2-|
|---------|

However, for more perfectionism, here is how it is played in the album. The lines are continual (dont repeat any of them), and the aproximate time of beggining of each line is marked.

3:30
|---------------------------------------------------------------------------------------------|
|-0-----------0-----------0-----------0-----------0-----------0-----------0-------------0-----|
|---0-----------------------0---------------0-------0-----------0-----------0---------0-------|
|-----1-------------1---------1-----------------------1-----------------------1---------------|
|-------2---------2-------------2-----------------------2-----------------------2---------2-2-|
|---------------------------------------------------------------------------------------------|

3:51
|---------------------------------------------------------------------------------------------|
|-0-----------0-----------0-----------0-----------0-----------0-----------0-----------0-------|
|---0-------------0---------0-----------0-----------0-----------0-----------0-----------------|
|-----1-----------------------1-----------------------1-------------1---------1---------------|
|-------2-----------------------2-----------------------2---------2---------------------------|
|---------------------------------------------------------------------------------------------|

4:11
|---------------------------------------------------------------------------------------------|
|-0-----------------------------------------0-----0-------------------------------------------|
|---------------------------------------------------0-----------------------0-----------------|
|---------------1-----------------------1-------------1---------1-------------1---------1-----|
|-------------2---2-------------------2---2-------------------2---2-------------------2---2---|
|---------------------------------------------------------------------------------------------|

4:29
|---------------------------------------------------------------------------------------------|
|-0-----------------------0-----------------------0-----------------------0-------------------|
|---0-----------------------0-----------------------0-----------------------0-----------------|
|-----1---------1---------------------2-1--------------------2-1----1---------------2-1---1---|
|-------------2---2-----------------------------------------------2---2-----------------2---2-|
|---------------------------------------------------------------------------------------------|

4:48
|---------------------------------------------------------------------------------------------|
|-0-----------------------0-----------------------------------------------0-------------------|
|---0-----------------------0-----------------------------------------------0-----------------|
|-----1---2-1---1-------------1---2-1---1---------2-1--------2-1----1---------------2-1-------|
|-------------2---2-------------------2---2-----------------------2---2-----------------------|
|---------------------------------------------------------------------------------------------|

10. Mx

www.deftonesworld.com
DEFTONES - "Around the Fur"
--------------------------------------
Guitar - Mx
===========
Tune (low to high): c#/g#/c#/f#/a#/d#
Credits to: Rap_sucks (stephen_brinson@hotmail.com)

Main-riff
|-------------|
|-------------|
|-------------|
|--1-0---3-4--|
|--1-0---3-4--|
|--1-0---3-4--|

MainRiff-Fill
|-------------|
|-------------|
|-------------|
|-4-x-1-1-1-1-|
|-4-x-1-1-1-1-|
|-4-x-1-1-1-1-|

Verse
|----|---------------------|------|----|------------------------------------------|
|----|---------------------|-Main-|----|-----5---------5---5-----5---------5---5--|
|----|---------------------|-Riff-|----|---7---------7---7-----7---7-----7---7----|
|-*4-|--4----4-----5----4--|------|-*4-|-4---------4---------5---------4----------|
|-*4-|--4----4-----5----4--|------|-*4-|-4---------4---------5---------4----------|
|-*4-|--4----4-----5----4--|------|-*4-|-4---------4---------5---------4----------|

Chorus
|------------|-------------|
|------------|-------------|
|------------|-------------|
|--4-4-4-44--|--4-5-55/-9--|
|--4-4-4-44--|--4-5-55/-9--|
|--4-4-4-44--|--4-5-55/-9--|

Verse, Chorus

Outro
|------|-------------|------|----------------|------|-------------|------|------|
|-Main-|-------------|-Main-|----------------|-Main-|-------------|-Main-|------|
|-Riff-|-------------|-Riff-|-------*3*4*5*5-|-Riff-|-------------|-Riff-|------|
|------|-4-x-1-1-1-1-|------|-4-x-1-*3*4*5*5-|------|-4-x-1-1-1-1-|------|--*4--|
|------|-4-x-1-1-1-1-|------|-4-x-1-*3*4*5*5-|------|-4-x-1-1-1-1-|------|--*4--|
|------|-4-x-1-1-1-1-|------|-4-x-1----------|------|-4-x-1-1-1-1-|------|--*4--|
                                                          <<<pm>>>

Outro-Verse
|---------------------|------------------------------------------|
|---------------------|-----5---------5---5-----5---------5---5--|
|---------------------|---7---------7---7-----7---7-----7---7----|
|--4----4-----5----4--|-4---------4---------5---------4----------|
|--4----4-----5----4--|-4---------4---------5---------4----------|
|--4----4-----5----4--|-4---------4---------5---------4----------|

Chorus

End
|-----|------|------|
|-----|-Main-|------|
|-----|-Riff-|------|
|--0--|------|-4--1-|
|--0--|------|-4--1-|
|--0--|------|-4--1-|
               <pm>