“Wicked” (Korn feat. Chino Moreno) || inc. on Korn’s “Life is Peachy” – 1996

 

BAND:  Korn/Chino
ALBUM: Life is Peachy
SONG:  WICKED

7-string guitar tuned down a full step

Verse and intro

E||--------------------
B||--------------------
C||--11---9/11\9--7----
G||--------------------
D||--------------------
A||--------------------
E||--------------------

Chorus

E||------------------
B||------------------
G||------------------
D||---------5-4------
A||---5-5-5-4-3-2-5--
E||---3-3-3-2-----3--

Pre-verse

E||----------------------------------------
B||---17-17-17-16-16-16-15-15-15-14-14-14--
B||---20-20-20-19-19-19-18-18-18-17-17-17--
G||----------------------------------------
D||----------------------------------------
A||----------------------------------------
E||----------------------------------------

			###################################
			# http://planeta.clix.pt/deftones #                   
			###################################
Page 1 of 11