“Teething” || inc. on “The Crow II – City of Angels” O.S.T. – 1995

 

BAND:  Deftones
ALBUM: The crow - 2 (ost)
SONG:  TEETHING

Drop D tuning (DAGBe)

Riff 1

e|-----------------------------|
b|-----------------------------|
G|--------------------------*--|
D|-----------------------------|
A|-4-3-5-3-4-3---3--3-5-3-4----|
D|-4-3-5-3-4-3---3--3-5-3-4----|

Riff 2

E|--------------------------------|
B|--------------------------------|
G|--------------------------------|
D|--------------------------------|
A|-4p3---4p3---4p3----3-3-3-4-4-4-|
D|-4p3-0-4p3-0-4p3-0--3-3-3-4-4-4-|

Riff 3

E|--------------|
B|--------------|
G|--------------|
D|--------------|
A|-4-3-5-3-4-3--|
D|-4-3-5-3-4-3--|

Riff 4

E|------------------------------------------|
B|------------------------------------------|
G|------------------------------------------|
D|------------------------------------------|
A|-13-h-14-13-h-14-13-h-14-13-h-14-14-h-15--|
D|-13-h-14-13-h-14-13-h-14-13-h-14-14-h-15--|

Riff 5

E|-----------------------------------------|
B|-----------------------------------------|
G|-----------------------------------------|
D|-----------------------------------------|
A|-14h15p14-14h15p14-|D|-14h15p14-14h15p14-|
D|-----------------------------------------| 

			###################################
			# http://planeta.clix.pt/deftones #                   
			###################################
Page 1 of 11