“Pink Maggit” (rap/metal version) || exc. “White Pony ” – 2000

 

BAND:  Deftones
ALBUM: White Pony
SONG:  PINK MAGGOT

Intro & 3rd Chorus 
Ab------10--10------10-------------------------------
Fb--10--10--10-10-10--10-10-10-10-10-10-10-0
Cb-------------------------8-0-0-0-8-0-0-0-8-0-0-0
Gb-------------------------8-0-0-0-8-0-0-0-8-0-0-0
Cb-------------------------8-0-0-0-8-0-0-0-8-0-0-0

Verse
Fb------------10-10-10-10-
Cb--5-4-8-0-0-0-0-0-0---
Gb--5-4-8-0-0-0-0-0-0---
Cb--5-4-8-0-0-0-0-0-0---

Chorus/Bridge 
Fb------------10-10-10-------------------
Db--8-8-8-8-0-0-0-0-0-5-5-5-5-4-4-4-
Ab--8-8-8-8-0-0-0-0-0-5-5-5-5-4-4-4-
Db--8-8-8-8-0-0-0-0-0-5-5-5-5-4-4-4-

			###################################
			# http://planeta.clix.pt/deftones #            
			###################################
Page 1 of 11