Like Linus /b

DEFTONES - Like Linus

Guitar TAB

Intro
/////

gtr 1

E|--------------------------------------|
B|--------------------------------------|
G|--------88888888--55555555------------|
D|--5555--88888888--55555555--66666666--|
A|--5555--66666666--33333333--66666666--|
E|--3333----------------------44444444--|

/\/\/\/\/\/\

gtr 1

E|------------------------------------------|
B|------------------------------------------|
G|------------88888888--55555555------------|
D|--55555555--88888888--55555555--66666666--|
A|--55555555--66666666--33333333--66666666--|
E|--33333333----------------------44444444--|

gtr 2

E|-----------------------------------|
B|-----------------------------------|
G|------------8--------5-------------|
D|--5---------8--------5----------6--|
A|--5---------6--------3----------6--|
E|--3-----------------------------4--|

/\/\/\/\/\

gtr 1

E|------------------------------------------|
B|------------------------------------------|
G|------------88888888--55555555------------|
D|--55555555--88888888--55555555--66666666--|
A|--55555555--66666666--33333333--66666666--|
E|--33333333----------------------44444444--|

gtr 2

E|---------------------------------------------------------|
B|---------------------------------------------------------|
G|--1212121212121212/1515151515151515/17/1212121212121212/-|
D|---x-x-x-x-x-x-x-x--x-x-x-x-x-x-x-x/-x--x-x-x-x-x-x-x-x--|
A|--1010101010101010/1313131313131313/15/1010101010101010/-|
E|---------------------------------------------------------|

E|------------|
B|------------|
G|--88888888--|
D|--xxxxxxxx--|
A|--66666666--|
E|------------|

Verse
/////

E|-----------------------|
B|-----------------------|
G|----------6------------|
D|----------6---------6--|
A|----------4---------6--|
E|--3-3-333---3-3-333-4--|

end with:

E|-------|
B|-------|
G|-------|
D|--4-5--|
A|--4-5--|
E|--2-3--|

Chorus
//////

E|------------------------------------------|
B|------------------------------------------|
G|------------88888888--55555555------------|
D|--55555555--88888888--55555555--66666666--|
A|--55555555--66666666--33333333--66666666--|
E|--33333333----------------------44444444--|

Bridge/Outro
////////////

E|----------------------------------------------|
B|----------------------------------------------|
G|----------------------------------------------|
D|--5-x-5-x-6--5-x-5-x-8--5-x-5-x-6--5-x-5-x-4--|
A|--5-x-5-x-6--5-x-5-x-x--5-x-5-x-6--5-x-5-x-4--|
E|--3-x-3-x-4--3-x-3-x-6--3-x-3-x-4--3-x-3-x-2--|

E|--------------------------------------------|
B|--------------------------------------------|
G|--------------------------------------------|
D|--5-x-5-x-6--5-x-5-x-8--5-x-5-x-6--3--4--5--|
A|--5-x-5-x-6--5-x-5-x-x--5-x-5-x-6--3--4--5--|
E|--3-x-3-x-4--3-x-3-x-6--3-x-3-x-4--1--2--3--|
Page 1 of 11