“God’s Hands” || Around The Fur outtake

 

BAND:  Deftones
SONG:  God's Hands

Intro/Chorus

E|---------------------------|
B|---------------------------|
G|---------------------------|
D|-----4-5--5-----5-4--2-----|
A|--2--2-3--3--2--3-2--0--6--|
E|--0----------0----------4--|

E|-----------------------------------|
B|-----------------------------------|
G|----------5/777/555----------------|
D|-----4-5--x/xxx/xxx-----5-4--2-----|
A|--2--2-3--3/555/333--2--3-2--0--6--|
E|--0------------------0----------4--|

E|-------------------------------------|
B|-------------------------------------|
G|----------7/999/1010-----------------|
D|-----4-5--x/xxx/x-x-------5-4--2-----|
A|--2--2-3--5/777/8-8----2--3-2--0--6--|
E|--0--------------------0----------4--|

end with:

E|-----|
B|-----|  let ring
G|-----|
D|-----|
A|--2--|
E|--0--|

Verse

E|--5/7--7-5-4--|
B|--6/8--8-6-5--|
G|--5/7--7-5-4--|
D|--------------|
A|--------------|
E|--------------|

Bridge

E|------------------------------------|
B|------------------------------------|
G|------------------------------------|
D|--4/5-5/4-4/5-5/7-------------------|
A|--2/3-3/2-2/3-3/5--6/7-7/6-6/4-4/3--|
E|-------------------4/5-5/4-4/2-2/1--|

E|-------------------------|
B|-------------------------|
G|-------------------------|
D|--4/55-x-x-x------22-22--|
A|--2/33-x-x-x-5-4--22-22--|
E|-------x-x-x-3-2--00-00--|

Outro

E|----------------|
B|----------------|
G|----------------|
D|-3/44-4-77-4----|
A|-1/22-2-55-6-7--|
E|-------------5--|

End

E|---------------------|
B|---------------------|
G|---------------------|
D|-3/44-4-77--4--------|
A|-1/22-2-55--6--7--4--|
E|---------------5--2--|

			#########################
			# www.deftonesworld.com #
			#########################
Page 1 of 11