7. Teenager

 

BAND:  Deftones
ALBUM: White Pony
SONG:  TEENAGER

Riff #1 

D|------------|--------------|------------|-----------|
A|------------|--------------|------------|-----------|
F|------------|--------------|------------|-----------|
C|-------6--8-|------6----6--|-------6--4-|-----4/6-4-|
G|----4-------|---4----------|---4--------|---4-------|
C|-4----------|-4------------|-4----------|-4---------|

Riff #2
D|------------|--------------|------------|-----------|
A|---------11-|--------------|------------|-----------|
F|------13----|--------------|------13-11-|-----------|
C|---11-------|--------------|---11-------|-----------|
G|-9----------|---9-13/15-13-|-9----------|---9--11-9-|
C|------------|-9------------|------------|-9---------|

			###################################
			# http://planeta.clix.pt/deftones #            
			###################################

8. Knife Prty

 

BAND:  Deftones
ALBUM: White Pony
SONG:  KNIFE PARTY

Intro

D|-------------------------------------------------------------------|
A|-------------------------------------------------------------------|
F|---5---5-5-5-5-5---5-5-5-5-5---5-5-5---5-5-5-5-5---5-5-5-5-5---5-/-|
C|---3---3-3-3-3-3---3-3-3-3-3---3-3-3---3-3-3-3-3---3-3-3-3-3---3-/-|
G|---3---3-3-3-3-3---3-3-3-3-3---3-3-3---3-3-3-3-3---3-3-3-3-3---3-/-|
C|-------------------------------------------------------------------|

D|-------------------------------------------------------------------|
A|-------------------------------------------------------------------|
F|-------------------------------------------------------------------|
C|---9---9-9-9-9-9---9-9-9-9-9---9-9-10--101010109---9-9-9-9-9---9-\-|
G|---7---7-7-7-7-7---7-7-7-7-7---7-7-7---7-7-7-7-7---7-7-7-7-7---7-\-|
C|---7---7-7-7-7-7---7-7-7-7-7---7-7-7---7-7-7-7-7---7-7-7-7-7---7-\-|

Verse

D|-------------------------------------------------------------------|
A|---5--5--5--5--5---5--5--5--5--5-----------------------------------|
F|---5--5--5--5--5---5--5--5--5--5-----------------------------------|
C|---3--3--3--3--3---3--3--3--3--3-/-9--9--9--9--9---10-10-9--9--9---|
G|---3--3--3--3--3---3--3--3--3--3-/-7--7--7--7--7---7--7--7--7--7---|
C|---3--3--3--3--3---3--3--3--3--3-/-7--7--7--7--7---7--7--7--7--7---|

Background

D|-----------------------------------|
A|-----------------------------------|
F|-------------------10-10-9--9--9---|
C|---9--9--9--9--9---7--7--7--7--7---|
G|---7--7--7--7--7---7--7--7--7--7---|
C|---7--7--7--7--7---7--7--7--7--7---|

Chorus

D|-------------------------------------------------------------------|
A|-------------------------------------------------------------------|
F|-----------------------------------10-10-9--9--9-999--9--9--9--9---|
C|---8--8--8--8--8---8--8--8--8--8---x--x--x--x--x-xxx--x--x--x--x---|
G|---8--8--8--8--8---8--8--8--8--8---8--8--7--7--7-777-/8-\7--7--7---|
C|---8--8--8--8--8---8--8--8--8--8-----------------------------------|

D|-------------------------------------------------------------------|
A|-------------------------------------------------------------------|
F|-------------------------------------------------------------------|
C|---8--8--8--8--8---8--8--8--8--8---0-------------------------------|
G|---8--8--8--8--8---8--8--8--8--8---0-------------------------------|
C|---8--8--8--8--8---8--8--8--8--8---0-------------------------------|

Bridge

D|-----|--1--|
A|--1--|--3--|
F|--2--|--2--|
C|--2--|--3--|
G|--0--|--0--|
C|-----|--0--|

			###################################
			# http://planeta.clix.pt/deftones #            
			###################################

9. Korea

Artist: Deftones
Title: Korea
Album: White Pony

By:Yardan Cohen/Brandon Blake
To: www.deftonesworld.com

Tuning: Dropped D then whole step down (CGCFAD)
Everything is in exact rhythm except bridge

Intro
D|---------------------------------------------------------------------------|
A|---------------------------------------------------------------------------|
F|------- 
-------------------------6-6-6-6-------------------------------------------|
C|-9-9-9-9-9-9-9-9-9-9-9-9---------------------------------------------------|
G|-6-6-6-6-6-6-6-6-6-6-6-6-5-5-5-5-------------------------------------------|
C|---------------------------------------------------------------------------|

Chorus (Palm mute all marked with ^ and stop all strings when marked with *)
D|---------------------------------------------------------------------------|
A|---------------------------------------------------------------------------|
F|-- 
---------6---6-----------6---6-----------6---6-----------------------------|
C|-0-0---0---------0-0---0---------0-0---0---------9-9-9-9-9-9-9-9-----------|
G|-0-0---0-5---5---0-0---0-5---5---0-0---0-5---5---6-6-6-6-6-6-6-6-----------|
C|-0-0---0---------0-0---0---------0-0---0-----------------------------------|
   ^     ^   *     ^     ^   *     ^     ^   *
Fill in
D|---------------------------------------------------------------------------|
A|---------------------------------------------------------------------------|
F|-6-6-6-6-------------------------------------------------------------------|
C|---------------------------------------------------------------------------|
G|-5-5-5-5-------------------------------------------------------------------|
C|---------------------------------------------------------------------------|

Verse
D|---------------------------------------------------------------------------|
A|---------------------------------------------------------------------------|
F|------  
------------------------6-6-6-6---------------------------------6-6-6-6|
C|-9-9-9-9-9-9-9-9-9-9-9-9---------9-9-9-9-9-9-9-9-9-9-9-9-------------------|
G|-6-6-6-6-6-6-6-6-6-6-6-6-5-5-5-5-6-6-6-6-6-6-6-6-6-6-6-6-5-5-5-5-----------|
C|---------------------------------------------------------------------------|

Verse (con't.)
D|---------------------------------------------------------------------------|
A|---------------------------------------------------------------------------|
F|------- 
-------------------------6-6-6-6-------------------------------------------|
C - - 
9-9-9-9-9-9-9-9-9-9-9-9---------9-9-9-9-9-9-9-9-9-9-9-9-0-0---------------|
G| 
6-6-6-6-6-6-6-6-6-6-6-6-5-5-5-5-6-6-6-6-6-6-6-6-6-6-6-6-0-0---------------|
C|------------------------------------------------------------------------- 
0-0---------------|
                                                      p.m. ^

Bridge
D|---------------------------------------------------------------------------|
A|---------------------------------------------------------------------------|
F|-------------------------------------------------                  
3-3-3-3-3-3-3-3-----------|
C|-0-0-0-0-0-0-0-0-7-7-7-7-7-7-7-7-5-5-5-5-5-5-5-5-3-3-3-3-3-3-3-3-----------|
G|-0-0-0-0-0-0-0-0-7-7-7-7-7-7-7-7-5-5-5-5-5-5-5-5-1-1-1-1-1-1-1-1-----------|
C|-------------------------------------------------                   
1-1-1-1-1-1-1-1-----------|

Bridge 2 (the rythem is the same as the first bridge)
D|---------------------------------------------------------------------------|
A|---------------------------------------------------------------------------|
F|---------------------------------------------------------------------------|
C|-0---------------7---------------5---------------1-------------------------|
G|-0---------------7---------------5---------------1-------------------------|
C|-0---------------7---------------5---------------1-------------------------|

Order of song:
Intro: 2x
Chorus: 4x
Fill in: 1x
Verse: 2x
Chorus: 2x
Fill in: 1x
Verse: 2x
Chorus: 4x
Bridge: 4x
Bridge 2: 8x
Chorus: 4x

Only play C|-9-| one time on last chorus
          G|-6-|

I'm 100% sure this is right except for both bridges.

Comments, corrections: nofxkid23@hotmail.com
===============================================================================

10. Passenger

 

BAND:  Deftones
ALBUM: White Pony
SONG:  PASSENGER

Intro/Verse
D|-----------------------------------------------------------------------------|
A|-----------10-10-10-10-----------8-8-8-8-----------6-6-6-6-----------6-6-6-6-|
F|-----------------------------------------------------------------------------|
C|-----------7--7--7--7------------5-5-5-5-----------4-4-4-4-----------4-4-4-4-|
G|-----------------------------------------------------------------------------|
D|-4-4-4-4-4-------------4-4-4-4-4---------4-4-4-4-4---------4-4-4-4-4---------|

Slow Riff

D|--------------|
A|----------7---|
F|------------5-|
C|-----5--------|
G|---9----------|
C|-9------9-----|

Bridge

D|--------|
A|--------|
F|--------|
C|-0-(32x)| 
G|-0------|
C|-0------|

Chorus

D|-------------------------------------------------|
A|-------------------------------------------------|
F|-------------------------------------------------|
C|-7-7-7-7-7-7-6-6-6-6-6-6-5-5-5-5-5-5-4-4-4-4-4-4-|
G|-4-4-4-4-4-4-4-4-4-4-4-4-4-4-4-4-4-4-4-4-4-4-4-4-|
C|-4-4-4-4-4-4-4-4-4-4-4-4-4-4-4-4-4-4-4-4-4-4-4-4-|

D|-------------------------------------------------------|
A|-------------------------------------------------------|
F|---------------7-----------------------9---------------|
C|-----4-4-4-4-4---4-4-4-4-4-9-4-4-4-4-4---4-4-4-4-4-----|
G|-----4-4-4-4-4---4-4-4-4-4---4-4-4-4-4---4-4-4-4-4-----|
C|-2^r-4-4-4-4-4---4-4-4-4-4---4-4-4-4-4---4-4-4-4-4-2^r-|

Slow Riff

D|--------------|
A|----------7---|
F|------------5-|
C|-----5--------|
G|---9----------|
C|-9------9-----|

Verse

D|---|--------------|-----5----7---|
A|-9-|--------------|------------7-|  
F|---|--------------|-9------------|  
C|---|-----5--------|--------9-----|  
G|---|---9------9-5-|--------------|
C|---|-9------9-----|---9----------|

End

D|---|
A|---|
F|-6-|
C|-5-|
G|-5-|
C|-5-|

			###################################
			# http://planeta.clix.pt/deftones #            
			###################################

11. Change (in the house of flies)

 

BAND:  Deftones
ALBUM: White Pony
SONG:  CHANGE (in the house of flies)

Tuning: Drop D then down a step

This song is played with two guitars but you can get away with playing it 
with just one. Might be a couple of errors here (this is my first tab) but 
is much more accurate than most of the crap I’ve seen floating around on the net. 

Intro & Verse 
D----------------------------------------------
A----------------------------------------------
F-------10-10-10-10----------------------------
C-------x-x-x-x-------7-7-7-8-8-8-7-7-7-8-8-7
G-------8-8-8--8-------5-5-5-5-5-5-5-5-5-5-5-5
C0-0-0-0-0-0-0-------5-5-5-5-5-5-5-5-5-5-5-5

Chorus

D-1-1-1-1-------------------
A-3-3-3-3-------------------
F-2-2-2-2-------------------
C-0-0-0-0----6-6-6-8-8-8-6-6-8-8-8-6
G-0-0-0-0----6-6-6-6-6-6-6-6-6-6-6-6
C-0-0-0-0----6-6-6-6-6-6-6-6-6-6-6-6

“It’s like you never”

D-3-3-3-3-3-3-3-3-3---1-1-1-1-1-1
A-6-6-6-6-6-6-6-6-6---3-3-3-3-3-3
F-5-5-5-5-5-5-5-5-5---2-2-2-2-2-2
C-3-3-3-3-3-3-3-3-3---0-0-0-0-0-0
G-3-3-3-3-3-3-3-3-3---0-0-0-0-0-0
C-3-3-3-3-3-3-3-3-3---0-0-0-0-0-0

“I look at the cross….”

D---------------------------------
A---------------------------------
F---------------------------------
C-7-7-7-8-8-8-7-7-7-----7-7-7-----
G------------------8-8-8-----8-8--
C-------------------------------0-

End

D-1-1-1-1-1--------------
A-3-3-3-3-3--------------
F-2-2-2-2-2--------------
C-0-0-0-0-0-7-8-7-8-8-8-7
G-0-0-0-0-0-5-5-5-5-5-5-5
C-0-0-0-0-0-5-5-5-5-5-5-5

Ajay Amin kappa_wearing_townie@hotmail.com

			###################################
			# http://www.deftonesworld.com    #          
			###################################

12. Pink Maggit

 

BAND:  Deftones
ALBUM: White Pony
SONG:  PINK MAGGIT
Author: Entilzha
Tuning: Dropped D and one step down

D|----------------|-----------|----------------------------------
A|----------------|-----------|----------------------------------
F|----3---------7-|-5h78-7-5-4|-----3----------------------------
C|---3--/-10---5--|-----------|----------------------------------
G|--1--/-8----5---|-----------|---1------------------------------
C|------0--------|-----------|--1-------------------------------
                            Interlude
                   Occurs Once

Chorus - Listen for Rhythm
D|-------------------------------------------------------------
A|-------------------------------------------------------------
F|-10--10--7---7-----------------------------------------------
C|-8---0---5---4-----------------------------------------------
G|-8---0---5---4-----------------------------------------------
C|-8---0---5---4-----------------------------------------------

13. The Boy’s Republic [limited editions only]

 

BAND:  Deftones
ALBUM: White Pony
SONG:  The Boys Republic

Intro

D|-----------------------------------|
A|-----------------------------------|
F|-----------------------------------|
C|--0-0-0---12-12-12---5-5-5-/-9-9-9-|
G|--0-0-0---12-12-12---5-5-5-/-9-9-9-|
C|--0-0-0---12-12-12---5-5-5-/-9-9-9-|

Verse

Rthym 1

...Blue star shine your light,down!...
D|------------------------------------|
A|------------------------------------|
F|------------------------------------|
C|----0-0-0----12-12-12----5-5-5------|
G|----0-0-0----12-12-12----5-5-5------|
C|----0-0-0----12-12-12----5-5-5------|

Rthym 1 (variation)
D|------------------------------------|
A|--------------------------7--7------|
F|--------------------------7--7------|
C|--0-0-0---12-12-12---5-5-5--5-------|
G|--0-0-0---12-12-12---5-5-5--5-------|
C|--0-0-0---12-12-12---5-5-5--5-------|

Rthym 3

...on everyone cause i don't care...
D|---------------------------------|
A|--5-5----5-5----5-5--------------|
F|--5-5----5-5----5-5--------------|
C|-3------3------3-----3-0-0-0-----|
G|-3------3------3-----3-0-0-0-----|
C|-3------3------3-----3-0-0-0-----|

Part A (during quiet part in song)

...it's more it's more down shine light...
D|-------------------------------------------|
A|-------------------------------------------|
F|-------------------------------------------|
C|-0--0----tap quickly------------tap quickly|
G|-0--0---12h13p12h13--13-----12h13p12h13--13|
C|-0--0--------------------------------------|

Part B
...shine your light...
D|-------------------------------------------|
A|-------------------------------------------|
F|-------------------------------------------|
C|-0--0----tap quickly--------tap quickly----|
G|-0--0----9h10p9h10--9--------9h10p9h10--9--|
C|-0--0--------------------------------------|

  Down!!!!!!!!!!!!!!!!!!!
D|---------------------------------|
A|---------------------------------|
F|---------------------------------|
C|--0-0-0-4--4-4---4--4-4----------|
G|--0-0-0--------------------------|
C|--0-0-0--------------------------|

  it's more....................
D|---------------------------------|
A|---------------------------------|
F|---------------------------------|
C|--0-0-0-7--7-7---7--7-7----------|
G|--0-0-0--------------------------|
C|--0-0-0--------------------------|

............................it's
D|---------------------------------|
A|---------------------------------|
F|---------------------------------|
C|--0-0-0-8--8-8---8--8-8----------|
G|--0-0-0--------------------------|
C|--0-0-0--------------------------|

....more.......................
D|---------------------------------|
A|---------------------------------|
F|---------------------------------|
C|--0-0-0-5--5-5---5--5-5----------|
G|--0-0-0--------------------------|
C|--0-0-0--------------------------|

......shine your light.............
D|---------------------------------|
A|---------------------------------|
F|---------------------------------|
C|--0-0-0-8--8-8---7-7--5----------|
G|--0-0-0--------------------------|
C|--0-0-0--------------------------|

Outro
D|---------------------------------|
A|---------------------------------|
F|------let notes ring-------------|
C|---------------------------------|
G|-----4-----7----8-----5----------|
C|---------------------------------|

			#########################
			# www.deftonesworld.com #            
			#########################

Like Linus /a

DEFTONES - Like Linus

Guitar TAB

Intro
/////

gtr 1

E|--------------------------------------|
B|--------------------------------------|
G|--------88888888--55555555------------|
D|--5555--88888888--55555555--66666666--|
A|--5555--66666666--33333333--66666666--|
E|--3333----------------------44444444--|

/\/\/\/\/\/\

gtr 1

E|------------------------------------------|
B|------------------------------------------|
G|------------88888888--55555555------------|
D|--55555555--88888888--55555555--66666666--|
A|--55555555--66666666--33333333--66666666--|
E|--33333333----------------------44444444--|

gtr 2

E|-----------------------------------|
B|-----------------------------------|
G|------------8--------5-------------|
D|--5---------8--------5----------6--|
A|--5---------6--------3----------6--|
E|--3-----------------------------4--|

/\/\/\/\/\

gtr 1

E|------------------------------------------|
B|------------------------------------------|
G|------------88888888--55555555------------|
D|--55555555--88888888--55555555--66666666--|
A|--55555555--66666666--33333333--66666666--|
E|--33333333----------------------44444444--|

gtr 2

E|---------------------------------------------------------|
B|---------------------------------------------------------|
G|--1212121212121212/1515151515151515/17/1212121212121212/-|
D|---x-x-x-x-x-x-x-x--x-x-x-x-x-x-x-x/-x--x-x-x-x-x-x-x-x--|
A|--1010101010101010/1313131313131313/15/1010101010101010/-|
E|---------------------------------------------------------|

E|------------|
B|------------|
G|--88888888--|
D|--xxxxxxxx--|
A|--66666666--|
E|------------|

Verse
/////

E|-----------------------|
B|-----------------------|
G|----------6------------|
D|----------6---------6--|
A|----------4---------6--|
E|--3-3-333---3-3-333-4--|

end with:

E|-------|
B|-------|
G|-------|
D|--4-5--|
A|--4-5--|
E|--2-3--|

Chorus
//////

E|------------------------------------------|
B|------------------------------------------|
G|------------88888888--55555555------------|
D|--55555555--88888888--55555555--66666666--|
A|--55555555--66666666--33333333--66666666--|
E|--33333333----------------------44444444--|

Bridge/Outro
////////////

E|----------------------------------------------|
B|----------------------------------------------|
G|----------------------------------------------|
D|--5-x-5-x-6--5-x-5-x-8--5-x-5-x-6--5-x-5-x-4--|
A|--5-x-5-x-6--5-x-5-x-x--5-x-5-x-6--5-x-5-x-4--|
E|--3-x-3-x-4--3-x-3-x-6--3-x-3-x-4--3-x-3-x-2--|

E|--------------------------------------------|
B|--------------------------------------------|
G|--------------------------------------------|
D|--5-x-5-x-6--5-x-5-x-8--5-x-5-x-6--3--4--5--|
A|--5-x-5-x-6--5-x-5-x-x--5-x-5-x-6--3--4--5--|
E|--3-x-3-x-4--3-x-3-x-6--3-x-3-x-4--1--2--3--|

Like Linus /b

DEFTONES - Like Linus

Guitar TAB

Intro
/////

gtr 1

E|--------------------------------------|
B|--------------------------------------|
G|--------88888888--55555555------------|
D|--5555--88888888--55555555--66666666--|
A|--5555--66666666--33333333--66666666--|
E|--3333----------------------44444444--|

/\/\/\/\/\/\

gtr 1

E|------------------------------------------|
B|------------------------------------------|
G|------------88888888--55555555------------|
D|--55555555--88888888--55555555--66666666--|
A|--55555555--66666666--33333333--66666666--|
E|--33333333----------------------44444444--|

gtr 2

E|-----------------------------------|
B|-----------------------------------|
G|------------8--------5-------------|
D|--5---------8--------5----------6--|
A|--5---------6--------3----------6--|
E|--3-----------------------------4--|

/\/\/\/\/\

gtr 1

E|------------------------------------------|
B|------------------------------------------|
G|------------88888888--55555555------------|
D|--55555555--88888888--55555555--66666666--|
A|--55555555--66666666--33333333--66666666--|
E|--33333333----------------------44444444--|

gtr 2

E|---------------------------------------------------------|
B|---------------------------------------------------------|
G|--1212121212121212/1515151515151515/17/1212121212121212/-|
D|---x-x-x-x-x-x-x-x--x-x-x-x-x-x-x-x/-x--x-x-x-x-x-x-x-x--|
A|--1010101010101010/1313131313131313/15/1010101010101010/-|
E|---------------------------------------------------------|

E|------------|
B|------------|
G|--88888888--|
D|--xxxxxxxx--|
A|--66666666--|
E|------------|

Verse
/////

E|-----------------------|
B|-----------------------|
G|----------6------------|
D|----------6---------6--|
A|----------4---------6--|
E|--3-3-333---3-3-333-4--|

end with:

E|-------|
B|-------|
G|-------|
D|--4-5--|
A|--4-5--|
E|--2-3--|

Chorus
//////

E|------------------------------------------|
B|------------------------------------------|
G|------------88888888--55555555------------|
D|--55555555--88888888--55555555--66666666--|
A|--55555555--66666666--33333333--66666666--|
E|--33333333----------------------44444444--|

Bridge/Outro
////////////

E|----------------------------------------------|
B|----------------------------------------------|
G|----------------------------------------------|
D|--5-x-5-x-6--5-x-5-x-8--5-x-5-x-6--5-x-5-x-4--|
A|--5-x-5-x-6--5-x-5-x-x--5-x-5-x-6--5-x-5-x-4--|
E|--3-x-3-x-4--3-x-3-x-6--3-x-3-x-4--3-x-3-x-2--|

E|--------------------------------------------|
B|--------------------------------------------|
G|--------------------------------------------|
D|--5-x-5-x-6--5-x-5-x-8--5-x-5-x-6--3--4--5--|
A|--5-x-5-x-6--5-x-5-x-x--5-x-5-x-6--3--4--5--|
E|--3-x-3-x-4--3-x-3-x-6--3-x-3-x-4--1--2--3--|

“Lovers” inc. “Hexagram)” single – 2003

-------------------------------------------------------------------------------
			     Lovers - Deftones
       			   www.deftonesworld.com
-------------------------------------------------------------------------------

Tabbed by:Jonathan Mojica
9/23/03
Email:xcrossx1@yahoo.com

Tuning:Really Stef plays it on a 7-string baritone tuned down half a step
I play it on a six string baritone 1/2 step down
Low to High G#,Eb,G#,C#,F#,Bb

intro/Verse
Bb|--------------------------------------------------------------------------|
F#|--------------------------------------------------------------------------|
C#|--------------------------------------------12-12-12-11-11-11-------------|
G#|--9-10-9-10-9--9-10-9-10-9--9-10-9-10-9--5--------------------------------|
Eb|--9-10-9-10-9--9-10-9-10-9--9-10-9-10-9--5--10-10-10--9--9--9-------------|
G#|--9-10-9-10-9--9-10-9-10-9--9-10-9-10-9--5--------------------------------|

Chorus
Bb|--------------------------------------------------------------------------|
F#|--------------------------------------------------------------------------|
C#|--------------------------------------------------------------------------|
G#|--7-8-7--7-7----7-8-7--7/5-5----------------------------------------------|
Eb|--7-8-7--7-7----7-8-7--7/5-5----------------------------------------------|
G#|--7-8-7--7-7----7-8-7--7/5-5----------------------------------------------|

Breakdown  Just strum these chords
Bb|--------------------------------------------------------------------------|
F#|--2---------------1-------------------------------------------------------|
C#|--4---------------4-------------------------------------------------------|
G#|--4---------------4-------------------------------------------------------|
Eb|--------------------------------------------------------------------------|
G#|--------------------------------------------------------------------------|

Chino plays this during the breakdown listen to the song for timing.
Bb|-15-14--9---7----7--9---7-15--7--9----------------------------------------|
F#|--------------------------------------------------------------------------|
C#|--------------------------------------------------------------------------|
G#|--------------------------------------------------------------------------|
Eb|--------------------------------------------------------------------------|
G#|--------------------------------------------------------------------------|

Song Structure:
Verse x6
Chorus x4
Verse x4
Chorus x8
breakdown x8
Chorus x8
verse x4
Versex8 Modified verse Just leave out the ending its starts to fade out at about 5 times round.

ATF tuning for all of you who don't want to tune your guitar down to G#
Intro/verse
D#|--------------------------------------------------------------------------|
A#|--------------------------------------------------------------------------|
F#|-------------------------------------7-7-7--6-6-6-------------------------| 
C#|-4-5-4-5-4--4-5-4-5-4--4-5-4-5-4--0---------------------------------------|
G#|-4-5-4-5-4--4-5-4-5-4--4-5-4-5-4--0--5-5-5--4-4-4-------------------------| 
C#|-4-5-4-5-4--4-5-4-5-4--4-5-4-5-4--0---------------------------------------| 

Chorus
D#|--------------------------------------------------------------------------|
A#|--------------------------------------------------------------------------|
F#|--------------------------------------------------------------------------|
C#|-2-3-2--2-2----2-3-2--2/0-0-----------------------------------------------| 
G#|-2-3-2--2-2----2-3-2--2/0-0-----------------------------------------------| 
C#|-2-3-2--2-2----2-3-2--2/0-0-----------------------------------------------|

Just stum these parts about five times each 
Breakdown
D#|--------------------------------------------------------------------------|
A#|--------------------------------------------------------------------------|
F#|--2---------------1-------------------------------------------------------| 
C#|--4---------------4-------------------------------------------------------| 
G#|--4---------------4-------------------------------------------------------| 
C#|--------------------------------------------------------------------------| 

Chino's part. You can use the D# string if you want.
A#|-15-14--9---7----7--9---7-15--7--9----------------------------------------| 

| /  slide up
| \  slide down
| h  hammer-on
| p  pull-off
| ~  vibrato
| +  harmonic
| x  Mute note

===============================================================================