“Can’t Even Breathe” || inc. on “Escape From L.A.” O.S.T. – 1995

 

BAND:  Deftones
ALBUM: Escape From L.A. (ost)
SONG:  CAN'T EVEN BREATHE

Intro 

eb ||------------------------------|| 
bb ||------------------------------|| 
gb ||------------------------------|| 
db ||------------------------------|| 
ab ||-9-/-7-7--7--9-/-7-7--7---0---|| 
Db ||-9-/-7-7--7--9-/-7-7--7---0---|| 

Verse 

eb ||------------------------------|| 
bb ||------------------------------||         
gb ||------------------------------|| 
db ||------------------------------|| 
ab ||-0--0-0-5-4-4-4-4-------------||         
Db ||-0--0-0-5-4-4-4-4-------------|| 

Chorus 

eb ||------------------------------|| 
bb ||------------------------------||     
gb ||------------------------------|| 
db ||------------------------------|| 
ab ||-5-5-5-5-5--4-4-4-4-----------||     
Db ||-5-5-5-5-5--4-4-4-4-----------|| 

Bridge 

eb ||---------------------------------------------------------|| 
bb ||---------------------------------------------------------|| 
gb ||---------------------------------------------------------|| 
db ||--------------------------------------------{5}{5}{5}----|| 
ab ||-9-7-7-7-9-7-7-7-------------------{5}{5}{5}-------------|| 
db ||-9-7-7-7-9-7-7-7-{5}{5}{5}{4}{4}{4}----------------------|| 

Outro 
eb||------------|| 
bb||------------|| 
gb||------------|| 
db||-0----------|| 
ab||-0----------|| 
Db||-0----------|| 
Let Ring--------| 

			###################################
			# http://planeta.clix.pt/deftones #                   
			###################################
Page 1 of 11