“Be Quiet And Drive-remix” (feat. Jonah & DJ Crook) || inc. “BQAD CD single 2 ” – 1998

 

BAND:  Deftones
SONG:  BE QUIET AND DRIVE (acoustic remix)

Intro

e---------
B---------
G--11--11-
d--11--11-
A--9 --9 -
D------9 -

Chorus

e---------------------------------------
B-----------11-------------------11-----
G--11-----11---11-------11-----11---11--
d--11--11---------11----11---11--------11
A--9 ----------------0--9 ---------------
D-----------------------9 -9-------------

Chorus #2

e----------------------------
B----------------------------
G--11--x-x-x-x--11--x-x-x-x-x
d--11--x-x-x-x--11--x-x-x-x-x
A--9 --x-x-x-x--9 --x-x-x-x-x
D------x-x-x-x--9 --x-x-x-x-x

Bridge
e--------
B--------
G--5-5-6-
d--5-5-6-
A--5-5-6-
D--5-5-6-

			###################################
			# http://planeta.clix.pt/deftones #            
			###################################
Page 1 of 11