9. Engine #9

Guitar - Engine no. 9
=====================
Tune (low to high): e/a/d/g/b/e
Credits to: c0z420 (coz200059@hotmail.com)

Pre-Verse
|--------------------------------0-------------------------------------|
|--------------------------------0-------------------------------------|
|--------------------------------0-------------------------------------|
|--------------------------------0-------------------------------------|
|----------------------------------------------------------------------|
|-2h3-2p0--2h3-2p0--2h3-2p0--2h3------2h3-2p0--2h3-2p0--2h3-2p0--2h5-5-|

Verse 2
|--------------------------------0-------------------------------------|
|--------------------------------0-------------------------------------|
|--------------------------------0-------------------------------------|
|--------------------------------0-----------------------------------7-|
|-4/5-4-0--4/5-4-0--4/5-4-0--4/5------4/5-4-0--4/5-4-0--4/5-4-0--4/5-7-|
|-2/3-2-0--2/3-2-0--2/3-2-0--2/3------2/3-2-0--2/3-2-0--2/3-2-0--2/3-5-|

Chorus
|------0-------0-------0-------0---------------------|
|------0-------0-------0-------0---------------------|
|------0-------0-------0-------0---------------------|
|------0-------0-------0-------0---------------------|
|-4-4-----4-4-----4-4-----4-4-----8--8-8--7-7--5/7-5-|
|-2-2-----2-2-----2-2-----2-2-----6--6-6--5-5--3/5-3-|

Verse 1
|--------------------------------0-------------------------------------|
|--------------------------------0-------------------------------------|
|--------------------------------0-------------------------------------|
|--------------------------------0-----------------------------------7-|
|-4/5-4-0--4/5-4-0--4/5-4-0--4/5------4/5-4-0--4/5-4-0--4/5-4-0--4/5-7-|
|-2/3-2-0--2/3-2-0--2/3-2-0--2/3------2/3-2-0--2/3-2-0--2/3-2-0--2/3-5-|
  <<<<<<<<<<<<<<pm>>>>>>>>>>>>>>      <<<<<<<<<<<<<<pm>>>>>>>>>>>>>>

Pre-verse, Verse 2, Chorus, Pre-verse, Verse 1, Pre-verse, Verse 2, Chorus

Outro
|-----------------------|-------------------------------------|
|-----------------------|-------------------------------------|
|-----------------------|-------------------------------------|
|-----------------------|-------------------------------------|
|-2-4--2-4--2-4---8--2--|--4/5------4-----4--2-4/5---8--2-----|
|-0-2--0-2--0-2---6--0--|--2/3-0-0--2--0--2--0-2/3---6--0-----|
pm                             +++     +     +++++

Fill
|------------------------------|
|------------------------------|
|------------------------------|
|--3--3--3--3--3--3-3-3-3-3-3--|
|--3--3--3--3--3--3-3-3-3-3-3--|
|--1--1--1--1--1--1-1-1-1-1-1--|
   <<<<<<<<<<<<pm>>>>>>>>>>>>

Chorus
Page 1 of 11