9. Bloody Cape

© www.deftonesworld.com

Tabbed by: Cross
7/10/03 
Email:xcrossx1@yahoo.com
I finally decided to release my tabs to the public (check the bottom for the 
reason why I didn't in the first place).

Tuning:Here is Stephen's REAL tuning G#,C#,F#,B,E,G#,C#. Thats 4 1/2 steps down
from regular tuning and 2 1/2 steps down for 7 string. I play these on a regular
Guitar so I don't have the extra C# but it still sounds 99-100% correct.

Effects: use chorus on intro. and for the verse chorus and bit of flanger.
Intro

C#|--------------------------------------------------------------------------|
G#|--------------------------------------------------------------------------|
E |-7-7-7-7-7-7-7-7-7-7-7-7-7-7-7--3-3-3-3-3-3-3-3-3-3-3-3-3-3-3-3-----------|
B |-0-0-0-0-0-0-0-0-0-0-0-0-0-0-0--0-0-0-0-0-0-0-0-0-0-0-0-0-0-0-0-----------|x2
F#|--------------------------------------------------------------------------|
C#|-7-7-7-7-7-7-7-7-7-7-7-7-7-7-7--3-3-3-3-3-3-3-3-3-3-3-3-3-3-3-3-----------|
G#|--------------------------------------------------------------------------|

Chorus
Part 1
C#|--------------------------------------------------------------------------|
G#|--------------------------------------------------------------------------|
E |--------------------------------------------------------------------------|
B |----------------------------------5-5-5-5-5-5-----------------------------|
F#|---4-4---4-4---4-4---4-4--5\4-4---5-5-5-5-5-5-----------------------------|
C#|---4-4---4-4---4-4---4-4--5\4-4---3-3-3-3-3-3-----------------------------|
G#|-0-2-2-0-2-2-0-2-2-0-2-2--3\2-2-0-----------------------------------------|

Part 2
C#|--------------------------------------------------------------------------|
G#|--------------------------------------------------------------------------|
E |--------------------------------------------------------------------------|
B |----------------------------------5-5-5-5/7-7-----------------------------|
F#|---4-4---4-4---4-4---4-4--5\4-4---5-5-5-5/7-7-----------------------------|
C#|---4-4---4-4---4-4---4-4--5\4-4---3-3-3-3/5-5-----------------------------|
G#|-0-2-2-0-2-2-0-2-2-0-2-2--3\2-2-0-----------------------------------------|

verse
                 Slide that 8 in there once in a while.
C#|--------------------------------------------------------------------------|
G#|--------------------------------------------------------------------------|
E |-7-7-7-7-7-7-7-7-7-7-7-7-7-7-7--3-3-3-3-3-3-3-3-3-3-3-3-3-3-3-3-----------|
B |-0-0-0-0-0-0-0-0-0-0-0-0-0-0-0--0-0-0-0-0-0-0-0-0-0-0-0-0-0-0-0-----------|
F#|--------------------------------------------------------------------------|
C#|-7-7-7-7-7-7-7/8\7-7-7-7-7-7-7--3-3-3-3-3-3-3-3-3-3-3-3-3-3-3-3-----------|
G#|--------------------------------------------------------------------------|

Breakdown
2:40
C#|--------------------------------------------------------------------------|
G#|--------------------------------------------------------------------------|
E |--------------------------------------------------------------------------|
B |--------------------------------------------------------------------------|
F#|---3/4-4---3/4-4---3/4-4---3/4-4---3/4-4---3/4-4---3/4-4---3/4-4----------|
C#|---3/4-4---3/4-4---3/4-4---3/4-4---3/4-4---3/4-4---3/4-4---3/4-4----------|
G#|-0h1/2-2-0h1/2-2-0h1/2-2-0h1/2-2-0h1/2-2-0h1/2-2-0h1/2-2-0h1/2-2----------|

Song Structure:

Intro 
Chorus x2
Verse  x4
Chorus x2
verse  x4
chorus x2
Breakdown x1
Verse  x2
part 1 of chorus with open C# and G# (little ones) x1
Breakdown x4

I tabbed this for all those real Deftones fans @ Deftonesworld.com check out 
their message board.

P.S. I would like to send out a BIG Fuck You to all you faggots that stole 
credit for my old tabs. 
Fuck You: 
Cenif (this guy deserves a MEGA FUCK YOU) cenif@hotmail.com 
Miguel Garzón knick_knack_666@hotmail.com
SAM ROWLANDS dead_evil4@hotmail.com  You NUTT BITING FAGGOTS
There were more but I guess reporting they're asses got them taken off before
I could get there info, Thieving biatchez.

| /  slide up
| \  slide down
| h  hammer-on
| p  pull-off
| ~  vibrato
| +  harmonic
| x  Mute note

===============================================================================

Tabbed by: NightFire99
Email: tyler__9@hotmail.com

h- hammer on 

Tuning: Drop A , down 1 1/2 steps:

Verse1:
C|----0----0--0-----0--0-----0--0--0--0----0--0----
G|----0----0--0-----0--0-----0--0--0--0----0--0----
E|----7----7--7-----7--7-----7--7--7--7----7--7----
B|-------------------------------------------------
F|----5----5--5-----5--5-----5--5--5--5----5--5----
C|----7----7--7-----7--7-----7--7--7--7----7--7----
F|-------------------------------------------------

C|----0----0--0-----0--0-----0--0--0--0----0-------
G|----0----0--0-----0--0-----0--0--0--0----0-------
E|----7----7--7-----7--7-----7--7--7--7----7\------
B|-------------------------------------------------
F|----5----5--5-----5--5-----5--5--5--5----5\------
C|----7----7--7-----7--7-----7--7--7--7----7\------
F|-------------------------------------------------

C|----0----0--0-----0--0-----0--0--0--0----0-------
G|----3----3--3-----3--3-----3--3--3--3----3-------
E|----3----3--3-----3--3-----3--3--3--3----3-------
B|----0----0--0-----0--0-----0--0--0--0----0-------
F|-------------------------------------------------
C|----3----3--3-----3--3-----3--3--3--3----3-------
F|-------------------------------------------------

C|----0----0--0-----0--0-----0--0--0--0------------
G|----3----3--3-----3--3-----3--3--3--3------------
E|----3----3--3-----3--3-----3--3--3--3------------
B|----0----0--0-----0--0-----0--0--0--0------------
F|-------------------------------------------------
C|----3----3--3-----3--3-----3--3--3--3------------
F|-------------------------------------------------

Verse2: 
C|----0----0--0-----0--0-----0--0--0--0----0--0----
G|----0----0--0-----0--0-----0--0--0--0----0--0----
E|----7----7--7-----7--7-----7--7--7--7----7--7----
B|-------------------------------------------------
F|----5----5--5-----5--5-----5--5--5--5----5--5----
C|----7----7--7-----7--7-----7--7--7--7----7--7----
F|-------------------------------------------------

C|----0----0--0-----0--0-----0--0--0--0----0-------
G|----0----0--0-----0--0-----0--0--0--0----0-------
E|----7----7--7-----7--7-----7--7--7--7----7-------
B|-------------------------------------------------
F|----5----5--5-----5--5-----5--5--5--5----5-------
C|----7----7--7-----7--7-----7--7--7--7----7-------
F|-------------------------------------------------

C|----0----0--0-----0--0-----0--0--0--0----0-------
G|----3----3--3-----3--3-----3--3--3--3----3-------
E|----3----3--3-----3--3-----3--3--3--3----3-------
B|----0----0--0-----0--0-----0--0--0--0----0-------
F|-------------------------------------------------
C|----3----3--3-----3--3-----3--3--3--3----3-------
F|-------------------------------------------------

C|----0----0--0-----0--0---------------------------
G|----3----3--3-----3--3---------------------------
E|----3----3--3-----3--3---------------------------
B|----0----0--0-----0--0---------------------------
F|-------------------------------------------------
C|----3----3--3-----3--3---------------------------
F|-------------------------------------------------

Verse3: 
C|---------------------------------------------------------------------
G|---------------------------------------------------------------------
E|---------------------------------------------------------------------
B|------------------------------------------5----5-5---5--5--5--5------
F|--2h4--4--7h4--4--2h4--4--7h4--4--7h4--7--5----5-5---5--5--5--5------
C|--2h4--4--7h4--4--2h4--4--7h4--4--7h4--7--3----3-3---3--3--3--3------
F|--2h4--4--7h4--4--2h4--4--7h4--4--7h4--7-----------------------------

C|--------------------------------------------------------------------
G|--------------------------------------------------------------------
E|--------------------------------------------------------------------
B|------------------------------------------5----5-5---5--5--5/7--7---
F|--2h4--4--7h4--4--2h4--4--7h4--4--7h4--7--5----5-5---5--5--5/7--7---
C|--2h4--4--7h4--4--2h4--4--7h4--4--7h4--7--3----3-3---3--3--3/5--5---
F|--2h4--4--7h4--4--2h4--4--7h4--4--7h4--7----------------------------

Bridge:
C|-------------------------------------------------------
G|-------------------------------------------------------
E|-------------------------------------------------------
B|---4--6--6----4--6--6----4--6--6----4--6--6------------
F|---2--4--4----2--4--4----2--4--4----2--4--4------------
C|---2--4--4----2--4--4----2--4--4----2--4--4------------
F|---2--4--4----2--4--4----2--4--4----2--4--4------------

C|-------------------------------------------------------
G|-------------------------------------------------------
E|-------------------------------------------------------
B|---4--6--6----4--6--6----4--6--6----4--6--6------------
F|---2--4--4----2--4--4----2--4--4----2--4--4------------
C|---2--4--4----2--4--4----2--4--4----2--4--4------------
F|---2--4--4----2--4--4----2--4--4----2--4--4------------

Song Order:  
Verse1
Verse2
Verse3 - 2x
Verse1 - 3x
Verse2
Verse3 - 2x
Verse1 - 3x
Verse2
Verse3 - 2x
Bridge 
Verse3
Bridge - 3x
Page 1 of 11