8. Birthmark

Guitar - Birthmark
==================
Tune (low to high): e/a/d/g/b/e
Credits to: OneOfSilent

Intro
|--12---------------12---(12)-------12-------(12)----|
|----11--------------11---(11)---------11-----(11)---|
|------10-------------10---(10)-----------10---(10)--|
|----------------------------------------------------|
|----------------------------------------------------|
|----------------------------------------------------|

Fill
|----|
|----|
|----|
|-12-|
|-10-|
|--0-|

Verse
|---------------------------------------------------------------------|
|---------------------------------------------------------------------|
|---------------------------------------------------------------------|
|--------------------------5^----2---------------------------5^----2--|
|--2-2--2-2-2-2--2-2-2-2-------3------3-3--3-3-3-3--3-3-3-3------3----|
|--0-0--0-0-0-0--0-0-0-0--------------0-0--0-0-0-0--0-0-0-0-----------|

Chorus
|-------------------|
|-------------------|
|-------------------|
|--2--5-5--4---(4)--|
|--2--5-5--4---(4)--|
|--0--3-3--2---(2)--|

Breakdown
|-0---------0-0--0---------0-0---0---------|--00000--|
|-0---------0-0--0---------0-0---0---------|--00000--|
|-9---------7-7--7---------9-9---9---------|--77777--|
|-0---------0-0--0---------0-0---0---------|--00000--|
|-7---------5-5--5---------7-7---7---------|-(55555)-|
|-0---------0-0--0---------0-0---0---------|-(00000)-|

Outro
|-------------------------------------|
|-------------------------------------|
|---------9-9-9-----7-----------------|
|-2-2-2---9-9-9-----7-----5-----5-\-4-|
|-2-2-2---7-7-7-----5-----5-----5-\-4-|
|-0-0-0----------0--5--0--3--0--3-\-2-|

End
After the vocals end, these variations of the Outro riff come in.
|-------------------------------------------|----------------------------------------------|
|-------------------------------------------|----------------------------------------------|
|-------------------------------------------|----------------------------------------------|
|------------------------------5-----5-\-4--|----------------------------------------------|
|----------/7-7-7-7-7--5--5-5--5-----5-\-4--|----------/7-7-7-7-7--5--5-5-/-10-10-10-\-9---|
|--0--0-0----------------------3--0--3-\-2--|--0--0-0--------------------------------------|

|-------------------------------------------|----------------------------------------------|
|-------------------------------------------|----------------------------------------------|
|-------------------------------------------|----------------------------------------------|
|------------------------------5-----5-\-4--|----------------------------------------------|
|----------/7-7-7-7-7--5--5-5--5-----5-\-4--|----------/7-7-7-7-7--5--5-5/-10-10-10-10/12\-|
|--0--0-0----------------------3--0--3-\-2--|--0--0-0--------------------------------------|
Page 1 of 11