7. 7 Words

Guitar - 7 words
================
Tune (low to high): e/a/d/g/b/e
Credits to: emaildead_evil4@hotmail.com

Verse
|---------------------------------------------------|
|---------------------------------------------------|
|-9-9-9-9-9-9-9-9-9-9-10-10-10-10-10-10-10-10-10-10-|
|-9-9-9-9-9-9-9-9-9-9-10-10-10-10-10-10-10-10-10-10-|
|-7-7-7-7-7-7-7-7-7-7--8--8--8--8--8--8--8--8--8--8-|
|-0-0-0-0-0-0-0-0-0-0--0--0--0--0--0--0--0--0--0--0-|

Pre-chorus
|-0-0-0-0-0-0-|
|-0-0-0-0-0-0-|
|-0-0-0-0-0-0-|
|-0-0-0-0-0-0-|
|-0-0-0-0-0-0-|
|-0-0-0-0-0-0-|

Chorus
The right way to play this chorus involve an extremely fast tremolo picking, and would be:
|----------------------------------|----------------------------------|
|----------------------------------|-------9/11-11-11-11-11-11-11-11--|
|-------8/10-10-10-10-10-10-10-10--|----------------------------------|
|----------------------------------|----------------------------------|
|--2-2-----------------------------|--2-2-----------------------------|
|--0-0-----------------------------|--0-0-----------------------------|

However, since it's hard to pick fast enough, there's an alternative (but it requires wide hand oppening and agility):
|----------------------|-------------------------|
|-------6--6--6--6--6--|------11-11-11-11-11-11--|
|-------8h10-10-10-10--|------13h15-15-15-15-15--|
|----------------------|-------------------------|
|--2-2-----------------|--2-2--------------------|
|--0-0-----------------|--0-0--------------------|

Verse, Pre-chorus, Chorus

Fill
|----------------------|
|----------------------|
|----------------------|
|----------------------|
|-2--------0-0-0-0-0-0-|
|-0--------0-0-0-0-0-0-|
pm         +++++++++++

Outro
|--------------------------|
|--------------------------|
|--------------------------|
|--------------------------|
|-5h7-----8-8-7-7-7-7/8--8-|
|-5h7-0-0-6-6-5-5-5-5/6--6-|
pm    + +

Verse, Pre-chorus, Chorus

Chorus variation
|----------------------------------|    |----------------------|
|------10/12-12-12-12-12-12-12-12--| or |-------12-12-12-12-12-|
|----------------------------------|    |-------14h16-16-16-16-|
|----------------------------------|    |----------------------|
|--2-2-----------------------------|    |--2-2-----------------|
|--0-0-----------------------------|    |--0-0-----------------|

End
|---------------|
|---------------|
|---------------|
|---------------|
|-4-4-4---3-3-3-|
|-2-2-4---1-1-1-|
Page 1 of 11