6. When Girls Telephone Boys

© www.deftonesworld.com

Song: When girls telephone boys
Artist: Deftones
Album: Deftones
Tabbed by: Cross
6/05/03
Email:xcrossx1@yahoo.com
I finally decided to release my tabs to the public (check the bottom for the 
reason why I didn't in the first place).

Tuning:Here is Stephen's REAL tuning G#,C#,F#,B,E,G#,C#. Thats 4 1/2 steps down
from regular tuning and 2 1/2 steps down for 7 string. I play these on a regular
Guitar so I don't have the extra C# but it still sounds 99-100% correct.

Verse 
There are no open strings during the verse thats just Frank.
C#|--------------------------------------------------------------------------|
G#|--------------------------------------------------------------------------|
E |--------------------------------------------------------------------------|
B |-8-8-8-8-8-8-8-8-8-8-8-8-8-8-8-8/11-11-11-11-11-11-11-11-11-11-11-11-11-11|
F#|-8-8-8-8-8-8-8-8-8-8-8-8-8-8-8-8/11-11-11-11-11-11-11-11-11-11-11-11-11-11|
C#|-6-6-6-6-6-6-6-6-6-6-6-6-6-6-6-6/-9--9--9--9--9--9--9--9--9--9--9--9--9--9|
G#|--------------------------------------------------------------------------|

C#|--------------------------------------------------------------------------|
G#|--------------------------------------------------------------------------|
E |--------------------------------------------------------------------------|
B |-11-11-12-12-12-12-12-12-12-12-12-12-12-12-12-12-12-12-12-12-12-12-12-12--|
F#|-11-11-12-12-12-12-12-12-12-12-12-12-12-12-12-12-12-12-12-12-12-12-12-12--|
C#|--9--9-10-10-10-10-10-10-10-10-10-10-10-10-10-10-10-10-10-10-10-10-10-10--|
G#|--------------------------------------------------------------------------|

C#|--------------------------------------------------------------------------|
G#|--------------------------------------------------------------------------|
E |--------------------------------------------------------------------------|
B |-12-12-12-12-12-12-12-12-12-12-13-13-13-13-13-13-13-13-13-13-13-13-13-13--|
F#|-12-12-12-12-12-12-12-12-12-12-13-13-13-13-13-13-13-13-13-13-13-13-13-13--|
C#|-10-10-10-10-10-10-10-10-10-10-11-11-11-11-11-11-11-11-11-11-11-11-11-11--|
G#|--------------------------------------------------------------------------|

C#|--------------------------------------------------------------------------|
G#|--------------------------------------------------------------------------|
E |--------------------------------------------------------------------------|
B |-13-13-13-13-13-13-13-13-13-13-13-13-13-13-13-13-13-13--------------------|
F#|-13-13-13-13-13-13-13-13-13-13-13-13-13-13-13-13-13-13--------------------|
C#|-11-11-11-11-11-11-11-11-11-11-11-11-11-11-11-11-11-11--------------------|
G#|--------------------------------------------------------------------------|

Slide into the chorus 16\2

Chorus 
P.M x x x                       x     x
C#|--------------------------------------------------------------------------|
G#|--------------------------------------------------------------------------|
E |--------------------------------------------------------------------------|
B |--------------------------------------------------------------------------|
F#|-4-4-4-4--4--4--4---5\4---4--4--4--4--4-----------------------------------|
C#|-4-4-4-4--4--4--4---5\4---4--4--4--4--4-----------------------------------|
G#|-2-2-2-2--2--2--2---3\2p0-2--2--2--2--2-----------------------------------|

P.M x x x                       x     x
C#|--------------------------------------------------------------------------|
G#|--------------------------------------------------------------------------|
E |--------------------------------------------------------------------------|
B |--------------------------------------------------------------------------|
F#|-4-4-4-4--4--4--4---5\4---4--4--4--4--5-----------------------------------|
C#|-4-4-4-4--4--4--4---5\4---4--4--4--4--5-----------------------------------|
G#|-2-2-2-2--2--2--2---3\2p0-2--2--2--2--3-----------------------------------|

P.M x x x                       x     x
C#|--------------------------------------------------------------------------|
G#|--------------------------------------------------------------------------|
E |--------------------------------------------------------------------------|
B |--------------------------------------------------------------------------|
F#|-4-4-4-4--4--4--4---5\4---4--4--4--4--4-----------------------------------|
C#|-4-4-4-4--4--4--4---5\4---4--4--4--4--4-----------------------------------|
G#|-2-2-2-2--2--2--2---3\2p0-2--2--2--2--2-----------------------------------|

P.M x x x                       x     x  
C#|--------------------------------------------------------------------------|
G#|--------------------------------------------------------------------------|
E |--------------------------------------------------------------------------|
B |--------------------------------------------------------------------------|
F#|-4-4-4-4--4--4--4---5\4---4--4--4--4--5-----------------------------------|
C#|-4-4-4-4--4--4--4---5\4---4--4--4--4--5-----------------------------------|
G#|-2-2-2-2--2--2--2---3\2p0-2--2--2--2--3-----------------------------------|

Breakdown

C#|--------------------------------------------------------------------------|
G#|--------------------------------------------------------------------------|
E |--------------------------------------------------------------------------|
B |-17-17-17-17-17-17-17-17-17-17-17-17-17-17-17-17-17-17-17-17-17-17-17-17--|
F#|--------------------------------------------------------------------------|
C#|-15-15-15-15-15-15-15-15-15-15-15-15-15-15-15-15-15-15-15-15-15-15-15-15--|
G#|--------------------------------------------------------------------------|

C#|--------------------------------------------------------------------------|
G#|--------------------------------------------------------------------------|
E |--------------------------------------------------------------------------|
B |-17-17-17-17-17-17-17-17-17\16-16-16-16-16-16-16-16-16-16-16-16-16-16-16--|
F#|--------------------------------------------------------------------------|
C#|-15-15-15-15-15-15-15-15-15\14-14-14-14-14-14-14-14-14-14-14-14-14-14-14--|
G#|--------------------------------------------------------------------------|

C#|--------------------------------------------------------------------------|
G#|--------------------------------------------------------------------------|
E |--------------------------------------------------------------------------|
C#|-16-16-16-16-16-16-16-16-16-16\14-14-14-14\13-13-13-13--------------------|
G#|--------------------------------------------------------------------------|
Eb|-14-14-14-14-14-14-14-14-14-14\12-12-12-12\11-11-11-11--------------------|
G#|--------------------------------------------------------------------------|

C#|--------------------------------------------------------------------------|
G#|--------------------------------------------------------------------------|
E |--------------------------------------------------------------------------|
B |-17-17-17-17-17-17-17-17-17-17-17-17-17-17-17-17-17-17-17-17-17-17-17-17--|
F#|--------------------------------------------------------------------------|
C#|-15-15-15-15-15-15-15-15-15-15-15-15-15-15-15-15-15-15-15-15-15-15-15-15--|
G#|--------------------------------------------------------------------------|

C#|--------------------------------------------------------------------------|
G#|--------------------------------------------------------------------------|
E |--------------------------------------------------------------------------|
B |-17-17-17-17-17-17-17-17-17\16-16-16-16-16-16-16-16-16-16-16-16-16-16-16--|
F#|--------------------------------------------------------------------------|
C#|-15-15-15-15-15-15-15-15-15\14-14-14-14-14-14-14-14-14-14-14-14-14-14-14--|
G#|--------------------------------------------------------------------------|

C#|--------------------------------------------------------------------------|
G#|--------------------------------------------------------------------------|
E |--------------------------------------------------------------------------|
B |-16-16\14-14-14-14-14-14-14-14-14-14\13-13-13-13-13-13--------------------|
F#|--------------------------------------------------------------------------|
C#|-14-14\12-12-12-12-12-12-12-12-12-12\11-11-11-11-11-11--------------------|
G#|--------------------------------------------------------------------------|

Song Structure:
Verse x2
Chorus x4
verse x2
Chorus x6
Breakdown
Chorus till the song ends.

P.S. I would like to send out a BIG Fuck You to all you faggots that stole 
credit for my old tabs. 
Fuck You: 
Cenif (this guy deserves a MEGA FUCK YOU) cenif@hotmail.com 
Miguel Garzón knick_knack_666@hotmail.com
SAM ROWLANDS dead_evil4@hotmail.com  You NUTT BITING FAGGOTS
There were more but I guess reporting they're asses got them taken off before
I could get there info, Thieving biatchez.

| /  slide up
| \  slide down
| h  hammer-on
| p  pull-off
| ~  vibrato
| +  harmonic
| x  Palm Mute note

===============================================================================

When Girls Telephone Boys
Tabbed By: Mateo

I have tabbed this song for a six string tuned to: 

Drop>            A#} F A# D# G C
Tun. Pattern.   7   5  5   4   5
I don't mean to gloat, but this tab is perfect for this tuning. Just trust me.  
This rythym in the chorus is great for intermediate learning. It includes 
successive palm mutes and dotted half notes (actual HALF (1/2) of a note).  
Listen closely, there are "discrepances" due to the tuning.  The tuning sTeF 
uses calls for many open strings to be strummed during the verse and bridge 
(its a difference of negative 3 frets on the bottom 2 strings) so get someone 
to overdub or something.  In the meantime, just use the 1st and 2nd strings open.
Thats all you'll need out of those two.  This song is simple and so heavy. 
I hope you enjoy.

Now, your equipment might not be capable of doing this (if the neck is bent 
and fucked up, it won't work)
The distortion is massive. Stefs using his Boss Hyper Fuzz.

I would also like to thank Nuno for running this site.  Keep up the good work.

You can also play battle-axe (easy) in this tuning. 

/ = Slide
* = play the same fret to this point >
. = palm mothafucka, like you never have before!

VERSE - "Always the same old taste"
|-0-0-0-0-0-0-0-0-0-0-0-0-0-0-0-0-0-0-0-0-0-0-0-0-0-0-0-0-0-0-0-0--------------|
|-0-0-0-0-0-0-0-0-0-0-0-0-0-0-0-0-0-0-0-0-0-0-0-0-0-0-0-0-0-0-0-0--------------|
|-4-4-4-4-4-4-4-4/7-7-7-7-7-7-7-7-8-8-8-8-8-8-8-8-8-8-8-8-8-8-8-8--------------|
|-4-4-4-4-4-4-4-4/7-7-7-7-7-7-7-7-8-8-8-8-8-8-8-8-8-8-8-8-8-8-8-8--------------|
|-2-2-2-2-2-2-2-2/5-5-5-5-5-5-5-5-6-6-6-6-6-6-6-6-6-6-6-6-6-6-6-6--------------|
|----------------------------------------------------------------------------------------|

|-0-0-0-0-0-0-0-0-0-0-0-0-0-0-0-0----------------------------------------------|
|-0-0-0-0-0-0-0-0-0-0-0-0-0-0-0-0----------------------------------------------|
|-9-9-9-9-9-9-9-9-9-9-9-9-9-9-9-9----------------------------------------------|
|-9-9-9-9-9-9-9-9-9-9-9-9-9-9-9-9----------------------------------------------| X1
|-7-7-7-7-7-7-7-7-7-7-7-7-7-7-7-7----------------------------------------------|  
|-----------------------------------------------------------------------------------|

Making you way to the slide point.  Make sure to set the intonation :) .

|-0-0-0-0-0-0-0-0-0-0-0-0-0-0-0-0-0-0-0-0-0-0-0-0-0-0-0-0-0-0-0-0--------|
|-0-0-0-0-0-0-0-0-0-0-0-0-0-0-0-0-0-0-0-0-0-0-0-0-0-0-0-0-0-0-0-0--------|
|-----------------------------------------------------------------------------------|  Mute this string
|-9-9-9-9-9-9-9-9/12*--all the way>-13*------------------------------->--------|
|-9-9-9-9-9-9-9-9/12*----can't---->-13*------------------------------->--------|
|-9-9-9-9-9-9-9-9/12*---fit LOL-->-13*------------------------------->--------|

* = follow to this = >

|-0-0-0-0-0-0-0-0-0-0-0-0-0-0-0-0|-0-0-0-0-0-0-0-0|-------------------------|
|-0-0-0-0-0-0-0-0-0-0-0-0-0-0-0-0|-0-0-0-0-0-0-0-0|-------------------------|
|-------------------------------------|-------------------|-------------------------|  Mute this string
|-14*--------------------------------|------------------>|-14-/-7----------------|  X1
|-14*--------------------------------|------------------>|-14-/-7----then-lift-off-|  Slide Bitch Slide
|-14*--------------------------------|------------------>|-14-/-7----------------|
                                                         >< THIS HAPPENS IN CERTAIN PARTS OF THE CHORUS(8 EXTRA SWEEPS) 

NOW THE FUN PART! THE CHORUS!

Listen to find out how many times to play each piece

|-----------------|------------||-----------------|------------|
|-----------------|------------||-----------------|------------|
|-----------------|------------||-----------------|------------|
|-0000-----------|-0-0-0-00-|--0000-----------|-0-0-0-11-|
|-0000-0--0-0-0|--0-0-0-00-|--0000-0--0-0-0|--0-0-0-11-|  
|-0000-0--0-0-0|--0-0-0-00-|--0000-0--0-0-0|--0-0-0-11-| 
  ........                                        .......

WHEN YOU GO INTO THE VERSE

|-------------|
|---------33-|
|--0-0-0-33-|
|--0-0-0-11-|  
|--0-0-0----| 

END WITH THIS INSTEAD THE NORMAL ONE ABOVE

BRIDGE - "I hope we never do meet again"
|--0---0--0---0--0--0--0--0--0--0---0--0---0---0--0--0--0--0--0---0---0--0--0--0--0---|
|--0---0--0---0--0--0--0--0--0--0---0---0--0---0--0--0--0--0--0---0---0--0--0--0--0---|
|-13-13-13-13-13-13-13-13-13-13-13-13-13-13-13-13\12-12-12-12-12-12-12-12-12---|
|-13-13-13-13-13-13-13-13-13-13-13-13-13-13-13-13\12-12-12-12-12-12-12-12-12---|
|-11-11-11-11-11-11-11-11-11-11-11-11-11-11-11-11\10-10-10-10-10-10-10-10-10---|
|----------------------------------------------------------------------------------------------|

|-0---0---0--0--0--0--0---0--0-0-0-0-0--------------------------------------|
|-0---0---0--0--0--0--0---0--0-0-0-0-0--------------------------------------|
|-12-12-12-12-12\10-10-10-10\9-9-9-9------------------------------------|
|-12-12-12-12-12\10-10-10-10\9-9-9-9------------------------------------|
|-10-10-10-10-10\-8--8--8---8\7-7-7-7------------------------------------|
|------------------------------------------------------------------------------|

THE RYTHYM VARIES BUT THIS IS THE FIRST ONE.

END ON/FADE OUT - PLAY THE CHORUS WITHOUT PALMING.

--------------------------------------------------------------------------------------------------------

Tabbed by: beto_zwi++er
12/13/04
Email:beto_zwitter@hotmail.com

Tuning: G# C# F# B E G# C#
This is played on a 7 strtings baritone, but i'm playing it on a acoustic 
normal 6 strings, so it may sound wrong.

Verse (Always the same old taste...)

C#|--------------------------------------------------------------------------|<<This 
is the string that i don't have.
G#|--------------------------------------------------------------------------|
E 
|--------------------------------------------------------------------------|
B 
|-8-8-8-8-8-8-8-8-8-8-8-8-8-8-8-8-11-11-11-11-11-11-11-11------------------|
F#|-8-8-8-8-8-8-8-8-8-8-8-8-8-8-8-8-11-11-11-11-11-11-11-11------------------|
C#|-6-6-6-6-6-6-6-6-6-6-6-6-6-6-6-6--9--9--9--9--9--9--9--9------------------|
G#|--------------------------------------------------------------------------|

C#|--------------------------------------------------------------------------|
G#|--------------------------------------------------------------------------|
E 
|--------------------------------------------------------------------------|
B 
|-11-11-11-11-11-11-11-11-12-12-12-12-12-12-12-12-12-12-12-12-12-12-12-12--|
F#|-11-11-11-11-11-11-11-11-12-12-12-12-12-12-12-12-12-12-12-12-12-12-12-12--|
C#|--9--9--9--9--9--9--9--9-10-10-10-10-10-10-10-10-10-10-10-10-10-10-10-10--|
G#|--------------------------------------------------------------------------|

C#|--------------------------------------------------------------------------|
G#|--------------------------------------------------------------------------|
E 
|--------------------------------------------------------------------------|
B 
|-12-12-12-12-12-12-12-12-12-12-12-12-12-12-12-12-13-13-13-13-13-13-13-13--|
F#|-12-12-12-12-12-12-12-12-12-12-12-12-12-12-12-12-13-13-13-13-13-13-13-13--|
C#|-10-10-10-10-10-10-10-10-10-10-10-10-10-10-10-10-11-11-11-11-11-11-11-11--|
G#|--------------------------------------------------------------------------|

C#|--------------------------------------------------------------------------|
G#|--------------------------------------------------------------------------|
E 
|--------------------------------------------------------------------------|
B 
|-13-13-13-13-13-13-13-13-13-13-13-13-13-13-13-13--------------------------|
F#|-13-13-13-13-13-13-13-13-13-13-13-13-13-13-13-13--------------------------|
C#|-11-11-11-11-11-11-11-11-11-11-11-11-11-11-11-11--------------------------|
G#|--------------------------------------------------------------------------|

Play again the verse but following the next pattern and playing the same 
times
C#|--------------------------------------------------------------------------|
G#|--------------------------------------------------------------------------|
E 
|--------------------------------------------------------------------------|
B 
|------x16--------x16----------x32---------x24-----------------------------|
F#|-13-13-13-13-16-16-16-16-17-17-17-17-18-18-18-18--------------------------|
C#|-13-13-13-13-16-16-16-16-17-17-17-17-18-18-18-18--------------------------|
G#|-11-11-11-11-14-14-14-14-15-15-15-15-16-16-16-16--------------------------|

then from the 16-18-18 slide into the chorus (16\2)

Chorus
P.M x x x                       x     x
C#|--------------------------------------------------------------------------|
G#|--------------------------------------------------------------------------|
E 
|--------------------------------------------------------------------------|
B 
|--------------------------------------------------------------------------|
F#|-4-4-4-4--4--4--4---5p4p--4--4--4--4--4-----------------------------------|
C#|-4-4-4-4--4--4--4---5p4p--4--4--4--4--4-----------------------------------|
G#|-2-2-2-2--2--2--2---3p2p0h2--2--2--2--2-----------------------------------|

P.M x x x                       x     x
C#|--------------------------------------------------------------------------|
G#|--------------------------------------------------------------------------|
E 
|--------------------------------------------------------------------------|
B 
|--------------------------------------------------------------------------|
F#|-4-4-4-4--4--4--4---5p4p--4--4--4--4--5-----------------------------------|
C#|-4-4-4-4--4--4--4---5p4p--4--4--4--4--5-----------------------------------|
G#|-2-2-2-2--2--2--2---3p2p0h2--2--2--2--3-----------------------------------|

P.M x x x                       x     x

G#|--------------------------------------------------------------------------|
E 
|--------------------------------------------------------------------------|
B 
|--------------------------------------------------------------------------|
F#|-4-4-4-4--4--4--4---5p4p--4--4--4--4--4-----------------------------------|
C#|-4-4-4-4--4--4--4---5p4p--4--4--4--4--4-----------------------------------|
G#|-2-2-2-2--2--2--2---3p2p0h2--2--2--2--2-----------------------------------|

P.M x x x                       x     x
C#|--------------------------------------------------------------------------|
G#|--------------------------------------------------------------------------|
E 
|--------------------------------------------------------------------------|
B 
|--------------------------------------------------------------------------|
F#|-4-4-4-4--4--4--4---5p4p--4--4--4--4--5-----------------------------------|
C#|-4-4-4-4--4--4--4---5p4p--4--4--4--4--5-----------------------------------|
G#|-2-2-2-2--2--2--2---3p2p0h2--2--2--2--3-----------------------------------|

Breakdown

C#|--0--0--0--0--0--0--0--0--0--0--0--0--0--0--0--0--0--0--0--0--0--0--0--0--|the 
open strings are optional
G#|--0--0--0--0--0--0--0--0--0--0--0--0--0--0--0--0--0--0--0--0--0--0--0--0--|
E 
|--------------------------------------------------------------------------|
B 
|-17-17-17-17-17-17-17-17-17-17-17-17-17-17-17-17-17-17-17-17-17-17-17-17--|
F#|--------------------------------------------------------------------------|
C#|-15-15-15-15-15-15-15-15-15-15-15-15-15-15-15-15-15-15-15-15-15-15-15-15--|
G#|--------------------------------------------------------------------------|

C#|--0--0--0--0--0--0--0--0--0--0--0--0--0--0--0--0--0--0--0--0--0--0--0--0--|
G#|--0--0--0--0--0--0--0--0--0--0--0--0--0--0--0--0--0--0--0--0--0--0--0--0--|
E 
|--------------------------------------------------------------------------|
B 
|-17-17-17-17-17-17-17-17-17\16-16-16-16-16-16-16-16-16-16-16-16-16-16-16--|
F#|--------------------------------------------------------------------------|
C#|-15-15-15-15-15-15-15-15-15\14-14-14-14-14-14-14-14-14-14-14-14-14-14-14--|
G#|--------------------------------------------------------------------------|

C#|--0--0--0--0--0--0--0--0--0--0--0--0--0--0--0--0--0--0--0--0--0--0--0--0--|
G#|--0--0--0--0--0--0--0--0--0--0--0--0--0--0--0--0--0--0--0--0--0--0--0--0--|
E 
|--------------------------------------------------------------------------|
B 
|-16-16-16-16-16-16-16-16-16-16\14-14-14-14\13-13-13-13--------------------|
F#|--------------------------------------------------------------------------|
C#|-14-14-14-14-14-14-14-14-14-14\12-12-12-12\11-11-11-11--------------------|
G#|--------------------------------------------------------------------------|

C#|--0--0--0--0--0--0--0--0--0--0--0--0--0--0--0--0--0--0--0--0--0--0--0--0--|
G#|--0--0--0--0--0--0--0--0--0--0--0--0--0--0--0--0--0--0--0--0--0--0--0--0--|
E 
|--------------------------------------------------------------------------|
B 
|-17-17-17-17-17-17-17-17-17-17-17-17-17-17-17-17-17-17-17-17-17-17-17-17--|
F#|--------------------------------------------------------------------------|
C#|-15-15-15-15-15-15-15-15-15-15-15-15-15-15-15-15-15-15-15-15-15-15-15-15--|
G#|--------------------------------------------------------------------------|

C#|--0--0--0--0--0--0--0--0--0--0--0--0--0--0--0--0--0--0--0--0--0--0--0--0--|
G#|--0--0--0--0--0--0--0--0--0--0--0--0--0--0--0--0--0--0--0--0--0--0--0--0--|
E 
|--------------------------------------------------------------------------|
B 
|-17-17-17-17-17-17-17-17-17\16-16-16-16-16-16-16-16-16-16-16-16-16-16-16--|
F#|--------------------------------------------------------------------------|
C#|-15-15-15-15-15-15-15-15-15\14-14-14-14-14-14-14-14-14-14-14-14-14-14-14--|
G#|--------------------------------------------------------------------------|

C#|--0--0--0--0--0--0--0--0--0--0--0--0--0--0--0--0--0--0--0--0--0--0--0--0--|
G#|--0--0--0--0--0--0--0--0--0--0--0--0--0--0--0--0--0--0--0--0--0--0--0--0--|
E 
|--------------------------------------------------------------------------|
B 
|-16-16-16-16-16-16-16-16-16-16\14-14-14-14\13-13-13-13--------------------|
F#|--------------------------------------------------------------------------|
C#|-14-14-14-14-14-14-14-14-14-14\12-12-12-12\11-11-11-11--------------------|
G#|--------------------------------------------------------------------------|

Song Structure:
Verse x2 (the first part and then the 2nd)
Chorus x4
verse x2 (the first part and then the 2nd)
Chorus x6
Breakdown
Chorus until the song ends.

/  slide up
\  slide down
h  hammer-on
p  pull-off
x  Palm Mute note
Page 1 of 11