6. “U,U,D,D,L,R,L,R,A,B,Select,Start”

Tabbed by Devin Davis
Awesome instrumental on Deftones new album "Saturday Night Wrist"
Tuned A Half step down Drop D
This is how i play it on a 6 string guitar.
Doesnt really have that much of a structure so try to firgure out where it all goes. I tried to put most of it in order.

|----------------------------------------------------------------------|
|----------------------------------------------------------------------|
|-------------7---5--5/7-7--8-7----------------7----5--5/7-7--8-7------|
|---------7-----5---------------8-5----------7----5---------------7----|
|-------5---------------------------8-8-8/10------------------------8--|
|-5-5-5----------------------------------------------------------------|

|------------------------------------------------------------------------------------------------------------------------------------|
|------------------------------------------------------------------------------------------------------------------------------------|
|------------------------------------------------------------------------------------------------------------------------------------|
|---8-8-8-8-8-8-8-8-8-8-8-8-8-8-8-8-7-7-7-7-7-7-7-7-7-7-7-7-7-7-7-7-8-8-8-8-8-8-8-8-8-8-8-8-8-8-8-8-7-7-7-7-7-7-7-7-7-7-7-7-7-7-7-7--|
|-8----------------------------------------------------------------------------------------------------------------------------------|
|------------------------------------------------------------------------------------------------------------------------------------|

|----------3--3/5--5/6--5---3-----------3--5--6--5-------------------------------------------------|
|----------x-------------------3-4p3-4-------------------------------------------------------------|
|----7-----5----------------------------------------------------8---7-8--8/10-7---8---7-8--8/10-7--|
|-7-----5--------------------------------------------5--7--7/8-------------------------------------|
|--------------------------------------------------------------------------------------------------|
|--------------------------------------------------------------------------------------------------|

|----------------------------------------------------------------|
|----------------------------------------------------------------|
|-7-----7-----7-----7-----8--7/8-8/10-7-----7-----7-----7-----7--|
|-7-----7-----7-----7-----------------------7-----7-----7-----7--|
|-5-----5-----5-----5-----------------------5-----5-----5-----5--|
|-5-----5-----5-----5-----------------------5-----5-----5-----5--|

Thats pretty much it.
If you have any questions E-mail me at crayola_22_88@yahoo.com
Page 1 of 11