5. Mein

Tabbed by Devin Davis
My LEAST favorite song on Deftones new album "Saturday Night Wrist" Probably just
of Serj from SOAD sings in it, but still a pretty fun song to play.
Tuned A Half step down Drop D
This is how i play it on a 6 string guitar.
Stef plays it on a 7 string

Intro
|-----------------|
|-----------------|
|-7------8--------|
|-x-(x8)-x--(x8)--| x2
|-6------6--------|
|--------9--------|

Verse
|-----------------------|
|-----------------------|
|10------5------4-------|
|-x-(x4)-x-(x4)-x-(x8)--| x4
|-9------4------2-------|
|---------------5-------|

Chorus
|-----------------------------------------------------------------------|
|-----------------------------------------------------------------------|
|-----------------------------------------------------------------------|
|-10-10-10-10-10-9--4-4-4-4-4-4-4-4--10-10-10-10-10-9-4-1-1-1-1-1-1-1-1-| x2
|-10-10-10-10-10-9--4-4-4-4-4-4-4-4--10-10-10-10-10-9-4-1-1-1-1-1-1-1-1-|
|-10-10-10-10-10-9--4-4-4-4-4-4-4-4--10-10-10-10-10-9-4-1-1-1-1-1-1-1-1-|

Bridge
|-----------------------------------------------------------------|
|-----------------------------------------------------------------|
|-----------------------------------------------------------------|
|-8-8-8-8-4-4-4-4-7-7-7-7-7-7-7-7-8-8-8-8-4-4-4-4-0-0-0-0-0-0-0-0-| x2
|-8-8-8-8-4-4-4-4-5-5-5-5-5-5-5-5-8-8-8-8-4-4-4-4-0-0-0-0-0-0-0-0-|
|-8-8-8-8-4-4-4-4-5-5-5-5-5-5-5-5-8-8-8-8-4-4-4-4-0-0-0-0-0-0-0-0-|

Ending
|-----------------|
|-----------------|
|-5---5--5--------|
|-5---5--5--7-7-7-| x8
|-3---3--3--5-5-5-|
|-5---5--5--8-8-8-|

If your have any questions, email me at crayola_22_88@yahoo.com
Page 1 of 11