5. Lifter

Guitar - Lifter
===============
Tune (low to high): d/a/d/g/b/e
This song is an exception to the "Adrenaline" standart tunning, which is e/a/d/g/b/e.
Credits to: *S**B*ot*

Verse (palm mute)
Use an octave pedal set to one octave lower to play this.
|---------------------------------------------------------------------------|
|---------------------------------------------------------------------------|
|---------------------------------------------------------------------------|
|---------------------------------------------------------------------------|
|-555-7-7-7-7-7-7-7-5-888-8-8-8-8-8-8---555-7-7-7-7-7-7-7-5-8-8-8-8-8-8-8-8-|
|---------------------------------------------------------------------------|

Chorus
|--------2--------3--|-----------------------3--|
|--------5--------6--|-----------------------6--|
|--------4--------5--|-----------------------5--|
|--0h2-2-2--0h3-3-3--|--0h2-2-2-2h0-00-0h3-3-3--|
|--0h2-2-2--0h3-3-3--|--0h2-2-2-2h0-00-0h3-3-3--|
|--0h2-2-2--0h3-3-3--|--0h2-2-2-2h0-00-0h3-3-3--|

Verse, Chorus

Bridge
|----------------------------------|
|----------------------------------|
|----------------------------------|
|-44444444444444444444444444444444-|
|-44444444444444444444444444444444-|
|-44444444444444444444444444444444-|

Chorus, Verse, Chorus, Bridge, Chorus, Verse

Outro
|-------------------------------------|---22222222---3333333-|---22222222---33333-3--|
|-------------------------------------|---55555555---6666666-|---55555555---66666----|
|-------------------------------------|---44444444---5555555-|---44444444---55555--5-|
|-------------------------------------|-0h22222222-0h3333333-|-0h22222222-0h33333----|
|-555-7-7-7-7-7-7-7-5-8-8-8-8-8-8-8-8-|-0h22222222-0h3333333-|-0h22222222-0h33333----|
|-------------------------------------|-0h22222222-0h3333333-|-0h22222222-0h33333----|

End
|-2-|
|-5-|
|-4-|
|-2-|
|-2-|
|---|
Page 1 of 11