4. Nosebleed

Guitar - Nosebleed
==================
Tune (low to high): e/a/d/g/b/e
Credits to: intheaisleyelling

Intro fill
|--------|
|--------|
|--------|
|-66-----|
|-44-6-6-|
|----4-4-|

Chorus
|-----------------------|
|-----------------------|
|-----------------------|
|-------6-------6-------|
|-7-6-7-4-7-6-------444-|
|-5-4-5---5-4-5---5-222-|

Verse
|---------------|---------------------|
|---------------|---------------------|
|---------------|------------------*4-|
|---------------|-------*4*4*4*4*4----|
|-55-55---------|-55-55---------------|
|-33-33---------|-33-33---------------|
 <<pm>>          <<pm>>

|---------------------|---------------------|--------------------|---------------|
|---------------------|---------------*4----|--------------------|---------------|
|---------------*5-*5-|---------------*4----|--------------------|---------------|
|-------*44444--*5-*5-|-------*44444-----*4-|-------*44444----*4-|--------//6666-|
|-55-55-*44444--------|-55-55-*44444-----*4-|-55-55-*44444----*4-|--55-55-//4444-|
|-33-33---------------|-33-33---------------|-33-33--------------|--33-33--------|

Chorus, Verse

Interlude
End the chorus with the following fill, then let its harmonics sound until feedback, and right before vocals come in you play the dead notes on the last strings:
|----|-xx-x-|
|-*3-|-xx-x-|
|-*3-|-xx-x-|
|-*3-|------|
|-*3-|------|
|-*3-|------|
Next tap the higher strings around the neck pickup with the pick, in dead notes, to make those beeping sounds. The rythm is rather random/variated, but here's an idea:
|-xx-------------|
|----xx----------|
|-------xx-x-----|
|-----------x-xx-|
|----------------|
|----------------|
Then follows this riff, first palm-mute and pick softly then release it while picking increasingly harder:
|-------------------------------------|
|-----666--------------666------------|
|--555---4444444444-555---4444444444--|
|-------------------------------------|
|-------------------------------------|
|-------------------------------------|

Bridge
|----------------------|
|----------------------|
|----------------------|
|-1010-1010-9999999999-|
|-1010-888--9999999999-|
|-888--888--7777777777-|

Interlude, Bridge, Chorus

End
|--------|
|--------|
|--------|
|-*4*4*4-|
|-*4*4*4-|
|--------|
Page 1 of 11