3. One Weak

Guitar - One weak
=================
Tune (low to high): e/a/d/g/b/e
Credits to: c0z420 (coz200059@hotmail.com)

1st Verse
|--------------------------|-------------------------|-------------------------|
|--------------------------|-------------------------|-------------------------|
|--------------------------|-------------------------|-------------------------|
|--------------------------|-----4~------------------|-------------------------|
|-----4-----4-----4-----5--|-----4~---------------5--|-----4-----4-----4----5--|
|--00-2--00-2--00-2--00-3--|--00-2~------------00-3--|--00-2--00-2--00-2-00-3--|
pm ++    ++    ++    ++       ++               ++       ++    ++    ++   ++

Fill
|--------------------------|
|--------------------------|
|--------------------------|
|--------------------------|
|----44----44----44----55--|
|--0-22--0-22--0-22--0-33--|

Chorus
|------------------------------------------------------|
|------------------------------------------------------|
|-----------------(0)----------------------------------|
|--6-6----6-------(0)----------------------------------|
|--4-4----4-66--22-2--5-5-5-5-4-4-4-4-7-7-7-7-5-5-5-5--|
|--4-4----4-44--00-0--3-3-3-3-2-2-2-2-5-5-5-5-3-3-3-3--|

2nd Verse
|-xx-|-------------------------------|
|-xx-|-------------------------------|
|-xx-|-------------------------------|
|----|----------------------------4--|
|----|----44----44----44----4--------|
|----|--0-22--0-22--0-22--0-2--0-2-3-|

Chorus

Outro
|-xx-|------------------------|-xx-|-------|
|-xx-|------------------------|-xx-|-------|
|-xx-|------------------------|-xx-|--^4---|
|----|------------------------|----|-------|
|----|--444-222-444-222-4455--|----|-------|
|----|--222-000-222-000-2233--|----|-------|
Page 1 of 11