3. Minerva

Minerva
by Mateo

Note: For this record, Stef has switched to a seven string baritone, 
so if you have seven string, go ahead and play. 

Tuning low to high : Db-Ab-Db-Gb-Bb-Eb (Around the Fur Tuning)

Intro Riff 
E|------------------0---0---0-------------------|
B|-----------------13--13--13-------------------|
G|---14---14---14--14--14--14-------------------|
D|---12---12---12-------------------------------|
A|----------------------------------------------|
D|----------------------------------------------|
A|----------------------------------------------| (FOR SEVEN STRING)

VERSE
E|-----------------------------------------------------|
B|-----------------------------------------------------|
G|--12--------14--------11-----------------------------|
D|---x---------x---------x-----------------------------|
A|--10--------12---------9-----------------------------|
D|---0---------0---------0-----------------------------|

A|---0---------0---------0-----------------------------|

CHORUS
E|-----------------------------------------------------|
B|-----------------------------------------------------|
G|-- 7-------4-----------------------------------------|
D|---5-------2-------0---------------------------------|
A|---5-------2-------0---------------------------------|
D|---5-------2-------0---------------------------------|

A|---5-------2-------0---------------------------------|

________________________________________________________

Here is something to learn about guitar:  (if you play you already know :)

This:
G|------
D|--7---
A|--7---
D|--7---

Is the same as this

G|--2--
D|--2--
A|--0--
D|------

In this tuning its also the notes to pink maggit,  but in the recording theres a slide to 10 8 0 so its the latter.

***********************************************************************************************************

Tabbed by: beto_zwitter
Date: 12 / 13 / 04
Tunning: G# C# F# B E G# C#

Credits for the tunning: Cros (xcrossx1@yahoo.com)
Well, I see that all the songs on this album are on the tunning above said, 
so i made a try for tab the
song of Minerva using this tunning. According that i have a standard six 
strings acoustic guitar, the song
is made on a 7 strings baritone (or 6 strings baritone), so it may sound 
wierd on your guitar. Comments: see at the end.\/

Intro (Play quiet and get a little louder before tha main riff)
C#-------------0--0--0--0--0----------------0--0--0--0--0---------- <<This 
is the string that i don't have, so i don't really know if
G#------------15-15-15-15-15---------------15-15-15-15-15---------- sounds 
right with this string open. Before i've been playing this
E---16-16-16--16-16-16-16-16-----16-16-16--16-16-16-16-16---------- DADGBE, 
leaving eht E string open and this sounds right.
B---14-14-14---------------------14-14-14--------------------------
F#-----------------------------------------------------------------
C#-----------------------------------------------------------------
G#-----------------------------------------------------------------

main riff / verse
C#-----------------------------------------------------------------
G#-----------------------------------------------------------------
E--14-14-/-16-16-16-16-16-16-13-13-13-13-13------------------------
B------------------------------------------------------------------ mute 
this string
F#-12-12-/-14-14-14-14-14-14-11-11-11-11-11------------------------
C#--0--0----0--0--0--0--0--0--0--0--0--0--0------------------------ <<Newly, 
i really don't know if this string sounds right leaving it open,
G#-----------------------------------------------------------------  so i 
let it to your criteria, and your electric guitar decide. (NOTE that
								     i was playing in this way:

								    G-12-12-/-14-14-14-14-14-14-11-11-11-11-11--
								    D------------------------------------------- muted string
								    A-10-10-/-12-12-12-12-12-12--9--9--9--9--9--
								    D--0--0----0--0--0--0--0--0--0--0--0--0--0--
Chorus (...And God bless you all...)
C#-----------------------------------------------------------------
G#-----------------------------------------------------------------
E------------------------------------------------------------------
B-----7-7-7-7-7-7-7-7----------------------------------------------
F#----7-7-7-7-7-7-7-7-9-9-9-9-9-9-9-9-7-7-7-7-7-7-7-7--------------
C#----5-5-5-5-5-5-5-5-9-9-9-9-9-9-9-9-7-7-7-7-7-7-7-7--------------
G#--------------------7-7-7-7-7-7-7-7-5-5-5-5-5-5-5-5--------------

play a little of the intro and then play the main riff / verse

That's all the riffs. after the part of above play again the CHORUS, then 
the INTRO equal ths first time, the MAIN RIFF / VERSE, the CHORUS and
at las time the INTRO. Just listen to it, is so easy...

For this tab you can modulate the way to play like leaving some strings open 
or the intro play other strings apart the marked, and so more as
you think is right.

Comments to beto_zwitter@hotmail.com

http://www.deftonesworld.com
Page 1 of 11