2. Rapture

Tabbed by Devin Davis
Really heavy awesome song on The Deftones new album "Saturday Night Wrist"
Tuned a Half step down Drop D
This is how i play it on a 6 string guitar.

|-------------------------------------------------------------|
|-------------------------------------------------------------|
|-------------------------------------------------------------|
|-7-7-7-7-7-8-8-8-8-8-11--11--11-11-11-11--11-11-11-11-11-11--| x 2
|-7-7-7-7-7-8-8-8-8-8-11--11--11-11-11-11--11-11-11-11-11-11--|
|-7-7-7-7-7-8-8-8-8-8-11--11--11-11-11-11--11-11-11-11-11-11--|

|-------------------------------------------------------------|
|-------------------------------------------------------------|
|-------------------------------------------------------------|
|-7-7-7-5-7-8-7-5-7-8-11--11--11-11-11-11--11-11-11-11-11-11--| x 2
|-7-7-7-5-7-8-7-5-7-8-11--11--11-11-11-11--11-11-11-11-11-11--|
|-7-7-7-5-7-8-7-5-7-8-11--11--11-11-11-11--11-11-11-11-11-11--|

|--------------------------------|
|--------------------------------|
|--------------------------------|
|--------------------------------| x4
|-------8-8-8-6-6--6-6-6-6-6-6---|
|-0-0-0--------------------------|

|--------|---------------------------------------|
|--------|---------------------------------------|
|--------|---------------------------------------|
|--------|---------------------------------------| x4
|-8-8-x1-|-------8-8-8-6-6--6-6-0h6h8--6-6-6-6---|
|--------|-0-0-0---------------------------------|

|---------------------------------------------------------|
|---------------------------------------------------------|
|---------------------------------------------------------|
|-5/7-7-7/8-8-8/11-11-11--5/7-7-7/8-8-8/11-11-11-11-11-11-| x2
|-5/7-7-7/8-8-8/11-11-11--5/7-7-7/8-8-8/11-11-11-11-11-11-|
|-5/7-7-7/8-8-8/11-11-11--5/7-7-7/8-8-8/11-11-11-11-11-11-|

Hope you like it.
If your have any questions, email me at crayola_22_88@yahoo.com
Page 1 of 11