2. Minus Blindfold

Guitar - Minus Blindfold
========================
Tune (low to high): e/a/d/g/b/e

Verse 1
|-----------------|-----------------|
|------0-----0----|------0-----0----|
|----0-----0--(0)-|----0-----0--(0)-|
|--2-----4--------|--2-----3--------|
|-----------------|-----------------|
|-----------------|-----------------|

Fill 1
|-------|
|-------|
|-------|
|-------|
|-2-2-2-|
|-0-0-0-|

Chorus
|-------------------------------------0--|
|-------------------------------------0--|
|-------------------------------------0--|
|-----------------3-------------------0--|
|--2-4-4-2--2-4-5-1-5-4---------------2--|
|--0-2-2-0--0-2-3---3-2--0-2-2--0-0-2-3--|

Post-chorus 1
|-----|-------------------|
|-----|-----*5-*5-*5-*5---|
|-----|-----*5-*5-*5-*5---|
|--2--|-----*5-*5-*5-*5---|
|--2--|-------------------|
|--0--|--x----------------|

Verse 1

Verse 2
|--------------------|------------|
|-----------*5*5-*5--|------------|
|-----------*5*5-*5--|------------|
|-----------*5*5-*5--|------------|
|--2-2--2-2----------|--2-2--2-2--|
|--0-0--0-0----------|--0-0--0-0--|

Verse 1, Chorus

Post-chorus 2
|--------|----------------|
|--------|--------*5*5*5--|
|--------|--------*5*5*5--|
|-----2--|--------*5*5*5--|
|-222-2--|--2-2-2---------|
|-000-0--|--0-0-0---------|

Verse 1, Verse 2, Verse 1, Fill 1, Chorus

Fill 2
|---|-0-0-0-0-0-0-0-0\\-|
|---|-0-0-0-0-0-0-0-0\\-|
|---|-0-0-0-0-0-0-0-0\\-|
|-2-|-4-4-4-4-4-4-4-4\\-|
|-2-|-4-4-4-4-4-4-4-4\\-|
|-0-|-2-2-2-2-2-2-2-2\\-|

Bridge
|----------------|----------------|
|----------------|----------------|
|----------------|----------------|
|----------------|------------3---|
|------1---------|------1-----3---|
|--3-3----1-111--|--3-3----1--1---|
  <<<<<<pm>>>>>     <<<pm>>>

Chorus

Outro
|---------------|---------------|---------------|-----*12----|
|------------*4-|---------------|------------*4-|-------*12--|
|------------*4-|---------------|------------*4-|------------|
|------------*4-|---------------|------------*4-|------------|
|-2-2----2------|-2-2----2------|-2-2----2------|-2-2--2-2---|
|-0-0-00-0--x---|-0-0-00-0--000-|-0-0-00-0--x---|-0-0--0-0---|
Page 1 of 11