11. Fist [hidden track]

Guitar - Fist (hidden track on "Adrenaline")
============================================
Tune (low to high): e/a/d/g/b/e
Credits to: camartin@intercable.net

Pre-verse
|-----------------------------------------------|
|-0-----0-----0-----0-----0---------------------|
|-0-0-0-0-0-0-0-0-0-0-0-0-0-------0-----0-----0-|
|-4-4-4-4-4-4-4-4-4-4-4-4-0-0-0-0-0-0-0-0-0-0-0-|
|---------------------------3-3-3-3-3-3-3-3-3-3-|
|-----------------------------------------------|

Verse
On this part a second guitar joins in:
|-2-2-2-2-2-2-2-2-2-2-2-2---0-0-0-0-0-0-0-0-0-0-|
|-0-0-0-0-0-0-0-0-0-0-0-0-0-0-0-0-0-0-0-0-0-0-0-|
|-0-----0-----0-----0-----0-0-----0-----0-----0-|
|-------------------------0---------------------|
|-----------------------------------------------|
|-----------------------------------------------|

However you could also play both with one guitar:
|-2-2-2-2-2-2-2-2-2-2-2-2---0-0-0-0-0-0-0-0-0-0-|
|-0-0-0-0-0-0-0-0-0-0-0-0-0-0-0-0-0-0-0-0-0-0-0-|
|-0-0-0-0-0-0-0-0-0-0-0-0-0-0-0-0-0-0-0-0-0-0-0-|
|-4-4-4-4-4-4-4-4-4-4-4-4-0-0-0-0-0-0-0-0-0-0-0-|
|---------------------------3-3-3-3-3-3-3-3-3-3-|
|-----------------------------------------------|

Pre-chorus
|-2-2-2-2-2-2-2-2-3-3-3-3-2-2-2-2-2-2-2-2-2-2-2-|
|-0-0-0-0-0-0-0-0-0-0-0-0-0-0-0-0-0-0-0-0-0-0-0-|
|-0-0-0-0-0-0-0-0-0-0-0-0-0-0-0-0-0-0-0-0-0-0-0-|
|-4-4-4-4-4-4-4-4-4-4-4-4-4-4-4-4-4-4-4-4-4-4-4-|
|-----------------------------------------------|
|-----------------------------------------------|

Chorus
|-----------------------------------------------|
|-----------------------------------------------|
|-----------------------------------------------|
|-5-5-5-5-5-5-5-5-7-7-5-5-5-5-5-7-7-7-9-9-9-9-9-|
|-3-3-3-3-3-3-3-3-5-5-3-3-3-3-3-5-5-5-7-7-7-7-7-|
|-------------------------------------0-0-0-0-0-|

Verse, Chorus, Pre-verse, Verse, Pre-chorus

Outro Chorus
Has the structure Chorus, Pre-chorus, Chorus but everything is played with the heavy distortion used on chorus.
Page 1 of 11