10. Fireal

Guitar - Fireal
===============
Tune (low to high): e/a/d/g/b/e

Verse
|------------------|-------------------|
|-----------3------|------------3------|
|------3------3----|------3-------3----|
|---(5)-5-------5--|----5---5-------5--|
|------------------|-------------------|
|--3---------------|--0----------------|

Chorus
|-----------------|------------------|
|-----------------|------------------|
|-----------------|------------------|
|-5\4-4--5\4-4-4--|--5\4-4--5\4-4-3--|
|-5\4-4--5\4-4-4--|--5\4-4--5\4-4-3--|
|-3\2-2--3\2-2-2--|--3\2-2--3\2-2-1--|

Verse, Chorus

Pre-outro
|----------------------------------------------------------------|
|----------------------------------------------------------------|
|----------------------------------------------------------------|
|-8-8-8-8--8-8-8-8/-12-12-12-12-12-12-12-12-------5-8-7-7--5-5/--|
|-6-6-6-6--6-6-6-6/-10-10-10-10-10-10-10-10--7-7--3-6-5-5--3-3/--|
|--------------------------------------------5-5-----------------|

Outro
|-----------------------------------------------------|
|-----------------------------------------------------|
|-8-8-8-8-8-8-8-8------------------------5-8-7-7--5-5-|
|-8-8-8-8-8-8-8-8--5-5-5-5-5-5-5-5--7-7--5-8-7-7--5-5-|
|-6-6-6-6-6-6-6-6--5-5-5-5-5-5-5-5--7-7--3-6-5-5--3-3-|
|-6-6-6-6-6-6-6-6--3-3-3-3-3-3-3-3--5-5---------------|
Page 1 of 11