10. Anniversary Of An Uninteresting Event (Piano Score)

“Anniversary of An Uninteresting Event” by Max Charlton
www.deftonesworld.com

--------------------------------------------------------------------------------------

Intro (listen to song for timings, its ¾ or check the music)

E|-------------------------------------------------------------------------------------|

B|--1-----1-------1-------1--1---------------------1----1----1------1--1---------------|

G|----0-----0-------0-2------------------------------0----0----0-2---------------------|

D|-----------------------------------2~--2~--2--2-----------------------------2~--0~---|

A|-------------------------------------------------------------------------------------|

E|-------------------------------------------------------------------------------------|

It gets kind of hard to hear, but this is the piano sheet tabbed out:

(Slur the first three notes, and play them very lightly and check the music sheet 
for timings or figure it out)

E|-----------------------5-3-1---0~-0~---1--1--1--3-1-1---0~-----3-1-1-----

B|--1~----1~----3~-----------------------3--3--3---------------3~----------

G|----------------5~-------------------------------------------------------

D|-------------------------------------------------------------------------

A|-------------------------------------------------------------------------

E|-------------------------------------------------------------------------

It may not sound right to you, but listen closely to the piano and according to the sheet music 
this is exactly what it plays.

E|------------------------------------------|

B|--1----1----1------1-1--------------------|

G|----0----0----0-2--------3--3--4-4-0~-----| 

D|-------------------------2--3--0-0-2-~----|               X2

A|------------------------------------------|

E|------------------------------------------|

E|-------------3~--0--5-3-1----------------------|

B|--1~---3~--------------------1~----------------|

G|-----------------------------------------------|

D|-----------------------------------------------|                wait 2 bars then repeat.

A|-----------------------------------------------|

E|-----------------------------------------------|

There is a bass part as well, as seen on the sheet music but I don’t know bass and therefore 
cant help you but hopefully a bassist can….Also….it sounds better on a clean channel, 
or maybe even an acoustic. 

***********************************************************************************************

Tabbed by: beto_zwitter
12 / 14 / 04
Tunning: G# C# F# B E G# C#

Credits for the tunning: Cros (xcrossx1@yahoo.com)
This song really don't have guitar, if you hear, the song is on piano, but 
if you don't have a pianist, or a piano,
you can play along the song (again with the "Deftones" album tunning) with 
your guitar.

Intro (When  the saong starts)
C#-------------------------------------------------------------------------------- 
(I play on a 6 strings, so i don't use this string)
G#--4-----4------4-----4--4------------------4-----4-------4-----4--4-------------
E-----3-----3------3-5---------0~--0~--0--0----3-----3-------3-5---------0~-------
B----------------------------------------------------------------------------3~---
F#--------------------------------------------------------------------------------
C#--------------------------------------------------------------------------------
G#--------------------------------------------------------------------------------

next the intro you play this:
C#-----------------------------------------------------------------------------
G#------------------------13-11-9---8~-8~---9--9--9--11-9-9---8~-------11-9-9--
E---8~----8~----10~--8~--------------------10-10-10----------------10~---------
B------------------------------------------------------------------------------
F#-----------------------------------------------------------------------------
C#-----------------------------------------------------------------------------
G#-----------------------------------------------------------------------------

Then, if you listen the song, (of course, the piano part) this is the thing 
that is playing:
C#-----------------------------------------------------------------
G#--4---4----4-----4-4---2--2--3-3--------------------------------- Play 
this part 2 times
E-----3---3----3-5-------0--1------3~------------------------------
B------------------------------3-3-5~------------------------------
F#-----------------------------------------------------------------
C#-----------------------------------------------------------------
G#-----------------------------------------------------------------

Then play this part, wait a moment (listen closely to the song) and play 
again.
C#-----------------------------------------------------------------
G#-4~---6~---11~--8--13-11-9---4~----------------------------------
E------------------------------------------------------------------
B------------------------------------------------------------------
F#-----------------------------------------------------------------
C#-----------------------------------------------------------------
G#-----------------------------------------------------------------

Well, this is basically all the parts that i can tab.
I hope you like it. Yopu can play on an acoustic (as I do, and it hears so 
good) ar a electric (clean effect)
What a beatiful song!!!! One of the best of the "DEFTONES".
Comments to beto_zwitter@hotmail.com
Page 1 of 11