1. Hole In The Hearth

Tuning (this tab): Drop D [ D A D G B E ]
Difficulty: novice
This song is tuned in Drop D EBGDAD tuning
I watched Steph play the song live so i know the main riff chords are right.
Enjoy.

Main Riff
|---------------------------------------------------------------------------------|
|---------------------------------------------------------------------------------|
|9-9-9-9--7-9--7-9--7-7--7-7--7-7--7-7--7-9--7-9--7-9--7-9--7-7--7-7--7-7--7-7--7-|
|9-9-9-9--7-9--7-9--7-7--7-7--7-7--7-7--7-9--7-9--7-9--7-9--7-7--7-7--7-7--7-7--7-|
|7-7-7-7--5-7--5-7--5-5--5-5--5-5--5-5--5-7--5-7--5-7--5-7--5-5--5-5--5-5--5-5--5-|
|---------------------------------------------------------------------------------|

Verse
|---------------------------------------------------|
|--7--7-7--7---8--8-8--8----------------------------|
|--x--x-x--x---x--x-x--x---6---6-6---6-6---6-6---6--|
|--4--4-4--4---5--5-5--5---x---x-x---x-x---x-x---x--|  x 2
|--------------------------4---4-4---4-4---4-4---4--|
|---------------------------------------------------|

|-------------------------------------|
|----10-----9-10-9-----10-----9-10-9--|
|-11----11----------11----11----------|
|-------------------------------------| x 2
|-------------------------------------|
|-------------------------------------|

Chorus
|-9-----------9---------12----------9------------|
|----10----------10---------10---------10--------|
|---------11---------11---------11---------11----|
|------------------------------------------------| 
|------------------------------------------------|
|------------------------------------------------|

Ending
|------------------------------|------------------| 
|------------------------------|------------------|
|------------------------------|------------------|
|-2--3-2-0-2--3-2-0-2--3-2-0-2-|-3-2p0-0----------| 
|-2--3-2-0-2--3-2-0-2--3-2-0-2-|-3-2p0-0----------|
|-2--3-2-0-2--3-2-0-2--3-2-0-2-|-3-2p0-0----------|
Page 1 of 11