9. Headup

Guitar - Headup
===============
Tune (low to high): c#/g#/c#/f#/a#/d#
Credits to: Chris (chino_7_dust@hotmail.com)

Intro
|---------------------|
|---------------------|
|---------------------|
|---------------------|
|---------------------|
|-3-2-0-2-0-2-0-2-0-2-|

Verse
|---------------------|
|---------------------|
|---------------------|
|-3-2-0-2-0-2-0-2-0-2-|
|-3-2-0-2-0-2-0-2-0-2-|
|-3-2-0-2-0-2-0-2-0-2-|

Intro, Verse
|---------------------------------------------|
|---------------------------------------------|
|---------------------------------------------|
|-9-9--9-9--9/10-10-10/12--9-9--9-9---*9---/3-|
|-9-9--9-9--9/10-10-10/12--9-9--9-9---*9---/3-|
|-9-9--9-9--9/10-10-10/12--9-9--9-9---*9---/3-|

Verse, Chorus

Bridge
|----------------------------------|
|----------------------------------|
|----------------------------------|
|-2-2-2-2-2-2-/7-7-3-3-3-3-3-3-3-3-|
|-2-2-2-2-2-2-/7-7-3-3-3-3-3-3-3-3-|
|-2-2-2-2-2-2-/7-7-3-3-3-3-3-3-3-3-|

Outro
|---------------------|
|---------------------|
|---------------------|
|-3-2-x-2-0-2-0-2-0-2-|
|-3-2-x-2-0-2-0-2-0-2-|
|-3-2-x-2-0-2-0-2-0-2-|

ENDING
For this part, the guitar is lightly distorted, vague & pendulant. You could simply mess around with the following notes:
|---------|
|-0-------|
|---0-----|
|-----1---|
|-------2-|
|---------|

However, for more perfectionism, here is how it is played in the album. The lines are continual (dont repeat any of them), and the aproximate time of beggining of each line is marked.

3:30
|---------------------------------------------------------------------------------------------|
|-0-----------0-----------0-----------0-----------0-----------0-----------0-------------0-----|
|---0-----------------------0---------------0-------0-----------0-----------0---------0-------|
|-----1-------------1---------1-----------------------1-----------------------1---------------|
|-------2---------2-------------2-----------------------2-----------------------2---------2-2-|
|---------------------------------------------------------------------------------------------|

3:51
|---------------------------------------------------------------------------------------------|
|-0-----------0-----------0-----------0-----------0-----------0-----------0-----------0-------|
|---0-------------0---------0-----------0-----------0-----------0-----------0-----------------|
|-----1-----------------------1-----------------------1-------------1---------1---------------|
|-------2-----------------------2-----------------------2---------2---------------------------|
|---------------------------------------------------------------------------------------------|

4:11
|---------------------------------------------------------------------------------------------|
|-0-----------------------------------------0-----0-------------------------------------------|
|---------------------------------------------------0-----------------------0-----------------|
|---------------1-----------------------1-------------1---------1-------------1---------1-----|
|-------------2---2-------------------2---2-------------------2---2-------------------2---2---|
|---------------------------------------------------------------------------------------------|

4:29
|---------------------------------------------------------------------------------------------|
|-0-----------------------0-----------------------0-----------------------0-------------------|
|---0-----------------------0-----------------------0-----------------------0-----------------|
|-----1---------1---------------------2-1--------------------2-1----1---------------2-1---1---|
|-------------2---2-----------------------------------------------2---2-----------------2---2-|
|---------------------------------------------------------------------------------------------|

4:48
|---------------------------------------------------------------------------------------------|
|-0-----------------------0-----------------------------------------------0-------------------|
|---0-----------------------0-----------------------------------------------0-----------------|
|-----1---2-1---1-------------1---2-1---1---------2-1--------2-1----1---------------2-1-------|
|-------------2---2-------------------2---2-----------------------2---2-----------------------|
|---------------------------------------------------------------------------------------------|
Page 1 of 11