8. Sextape

 -------Sextape-------
                                                          Deftones
 this is the tab for the guitar that is in C tuning (CGCFAD). It basically revolves 
2 chords for the whole song.

Use a lot of delay and obviously have distortion and a clean channel to play accurately. 
parts as necessary

Key: ~: let note ring r: return bend
         b: bend string

    Intro/Reentry to verse 2
D|-------------------------------------------------|
A|-------------------------------------------------|
F|----------6~~~----------6b--r6-------------------|
C|-------4~~~----------4~~~------------------------|
G|----5~~~----------5~~~---------------------------|
C|-0~~~----------0~~~------------------------------|

    Verses (Repeat)
D|-------------------------------------------------|
A|-------------0---0-------------------------------|
F|----------6----6----6----------------------------|
C|-------4--------------5--------------------------|
G|----5-------------------4------------------------|
C|-0-----------------------------------------------|
    Midverse (listen to song for strumming pattern)
D|-------------------------------------------------|
A|-------------------------------------------------|
F|-11-11-11-11-11-11-11-11-11b-r11-----------------|
C|-9--9--9--9--9--9--9--9--9b--r9------------------|
G|-10-10-10-10-10-10-10-10-10b-r10-----------------|
C|-0~-0--0--0--0--0--0--0--0----0------------------|
  Prechorus (listen for Strumming Pattern)
D|-------------------12-12-12-12-12-12-12-12-12-12-|
A|-------------------12-12-12-12-12-12-12-12-12-12-|
F|-11-11-11-11-11-11-11-11-11-11-11-11-11-11-11-11-|
C|-9--9--9--9--9--9--9--9--9--9--9--9--9--9--9--9--|
G|-10-10-10-10-10-10-10-10-10-10-10-10-10-10-10-10-|
C|-0-0-0-0-0-0-0--0--0--0--0--0--0--0--0--0--0--0--|

  Chorus (listen for strumming pattern/repeat as necessary)
D|-----------0~--0~-------------------------------------|
A|---------7-0~--0~-------------------------------------|
F|-6-6-6-6-6-6~--6~-------------------------------------|
C|-4-4-4-4-4-4~--4~-------------------------------------|
G|-5-5-5-5-5-5~--5~-------------------------------------|
C|-0-0-0-0-0-0~--0~-------------------------------------|
    Chorus Part 2
D|-------------------12-12-12-12-12-12-12-12-12-12-|
A|-------------------12-12-12-12-12-12-12-12-12-12-|
F|-11-11-11-11-11-11-11-11-11-11-11-11-11-11-11-11-|
C|-9--9--9--9--9--9--9--9--9--9--9--9--9--9--9--9--|
G|-10-10-10-10-10-10-10-10-10-10-10-10-10-10-10-10-|
C|-0-0-0-0-0-0-0--0--0--0--0--0--0--0--0--0--0--0--|
    End song with this
D|------|
A|------|
F|-6b~r6|
C|-4~~--|
G|-5~~--|
C|-0~~--|
Page 1 of 11