8. Dai The Flu

Guitar - Be quiet and drive (far away)
======================================
Tune (low to high): c#/g#/c#/f#/a#/d#
Credits to: aviolentfluid

Verse
Use an ultra-loud effector with loud reverb, and set your guitar to have as much feedback as possible, then simply let that microphony/feedback sound, without playing anything.

Chorus
|--------------------------------------|----|
|-----------------10101010101010101010-|----|
|-9-9-8-9-9-8-9-8--9-9-9-9-9-9-9-9-9-9-|----|
|-7-7-6-7-7-6-7-6--9-9-9-9-9-9-9-9-9-9-|-11-|
|-7-7-6-7-7-6-7-6--9-9-9-9-9-9-9-9-9-9-|--9-|
|-7-7-6-7-7-6-7-6--9-9-9-9-9-9-9-9-9-9-|----|

Verse, Chorus, Verse, Chorus

Bridge
|-----------------------------------------------------------|
|-----------------------------------------------------------|
|-------------------------------------------5-5-5-5-5-5-5-5-|
|-2-2-2-2--2-2-2-5-5-5-5--5-5-6-6-6-6--6-6--5-5-5-5-5-5-5-5-|
|-2-2-2-2--2-2-2-5-5-5-5--5-5-6-6-6-6--6-6--3-3-3-3-3-3-3-3-|
|-2-2-2-2--2-2-2-5-5-5-5--5-5-6-6-6-6--6-6------------------|

Interlude
Use a echo effector on the maximum, and you should only play the first chord and the other would echo. This part should be played with two guitars, one with the effector, and the other doing the second little fill, with distortion. However Stef himself, while playing live, usually sacrifices a little of the echo to do the 2nd guitar fill.
|----------------------|-------------|
|----------------------|-------------| 
|----------------------|-------------| 
|----------------------|-5-5-5-6-6-6-|
|-2-(2)(2)(2)(2)(2)(2)-|-5-5-5-6-6-6-|
|-2-(2)(2)(2)(2)(2)(2)-|-5-5-5-6-6-6-|

Bridge variation
On the album, from 3:55 to 4:06, the Bridge is played one octave higher.
|-------------------------|
|-------------------------|
|--//9--//12--//13--//17--|
|-------------------------|
|--//7--//10--//11--//15--|
|-------------------------|
Page 1 of 11