7. Teenager

 

BAND:  Deftones
ALBUM: White Pony
SONG:  TEENAGER

Riff #1 

D|------------|--------------|------------|-----------|
A|------------|--------------|------------|-----------|
F|------------|--------------|------------|-----------|
C|-------6--8-|------6----6--|-------6--4-|-----4/6-4-|
G|----4-------|---4----------|---4--------|---4-------|
C|-4----------|-4------------|-4----------|-4---------|

Riff #2
D|------------|--------------|------------|-----------|
A|---------11-|--------------|------------|-----------|
F|------13----|--------------|------13-11-|-----------|
C|---11-------|--------------|---11-------|-----------|
G|-9----------|---9-13/15-13-|-9----------|---9--11-9-|
C|------------|-9------------|------------|-9---------|

			###################################
			# http://planeta.clix.pt/deftones #            
			###################################
Page 1 of 11