7. Lotion

www.deftonesworld.com
DEFTONES - "Around the Fur"
--------------------------------------
Guitar - Lotion
===============
Tune (low to high): c#/g#/c#/f#/a#/d#
Credits to: c0z420 (coz200059@hotmail.com)

Pre-Verse (chorus effector)
|--3----3----3----3--|
|--0----0----0----0--|
|--0-0--0-0--0-0--0--|
|--0-0--0-0--0-0--0--|
|--------------------|
|--------------------|

Verse
|----------------------------------3----3----3----3--|
|----------------------------------0----0----0----0--|
|----------------------------------0-0--0-0--0-0--0--|
|--0h1-1-1--0h1-1-1--0-1-1--0-1-1--0-0--0-0--0-0--0--|
|--0h1-1-1--0h1-1-1--0-1-1--0-1-1--------------------|
|--0h1-1-1--0h1-1-1--0-1-1--0-1-1--------------------|
                                   <<chorus effect>>

Verse-fill
|------------------------------|
|------------------------------|
|------------------------------|
|--0h1-1--0h1-1--0h1-1--0h1-1--|
|--0h1-1--0h1-1--0h1-1--0h1-1--|
|--0h1-1--0h1-1--0h1-1--0h1-1--|

Chorus
|------------------------------------|
|------------------------------------|
|------------------------------------|
|--4-4--4-4--4-4p0--5-5--5-5--5-5p0--|
|--4-4--4-4--4-4p0--5-5--5-5--5-5p0--|
|--4-4--4-4--4-4p0--5-5--5-5--5-5p0--|

Pre-verse, Verse, Verse-fill, Chorus

Bridge
|-----------------|
|-----------------|
|-----------------|
|--444444-45-4p0--|
|--444444-45-4p0--|
|--444444-45-4p0--|
   <<pm>>

Pre-verse, Verse, Verse-fill, Chorus, Bridge

OUTRO
|------------------|
|------------------|
|------------------|
|--0h44-44-44-4p0--|
|--0h44-44-44-4p0--|
|--0h44-44-44-4p0--|

Pre-verse, Verse, Verse-fill, Chorus, Bridge, Outro
Page 1 of 11