6. Street Carp

 

BAND:  Deftones
ALBUM: White Pony
SONG:  STREET CARP

Intro
D|-------------------------------------------|
A|-------------------------------------------|
F|-------------------------------------------|
C|-9-9-9-9-9-9-9-9-9/13-13-13-13-13-13-13/12-|
G|-9-9-9-9-9-9-9-9-9/13-13-13-13-13-13-13/12-|
C|-9-9-9-9-9-9-9-9-9/13-13-13-13-13-13-13/12-|

Verse
D|---------------------------------------------------------------------------------|
A|---------------------------------------------------------------------------------|
F|---------------------------------------------------------------------------------|
C|-6-7-6-0-6-9-6-0-6-7-6-0-6-9-6-0-11-11-11-11-11-11-11-11-11-15-15-15-15-15-15-15-|
G|-6-7-6-0-6-9-6-0-6-7-6-0-6-9-6-0-------------------------------------------------|
C|-6-7-6-0-6-9-6-0-6-7-6-0-6-9-6-0-9--9--9--9--9--9--9--9--9--13-13-13-13-13-13-13-|

Chorus
D|-------------------------------------------------|
A|-------------------------------------------------|
F|-------------------------------------------------|
C|-6-6-6-6-6-6-6-6-6-6-6-6-6-9-9-2-2-2-2-2-2-2-2-2-|
G|-6-6-6-6-6-6-6-6-6-6-6-6-6-9-9-2-2-2-2-2-2-2-2-2-|
C|-6-6-6-6-6-6-6-6-6-6-6-6-6-9-9-2-2-2-2-2-2-2-2-2-|

Chorus #2
D|-----------------|
A|-----------------|
F|-----------------|
C|-----------------|
G|-----------------|
C|-6-7-6-0-6-9-6-0-|

			###################################
			# http://planeta.clix.pt/deftones #            
			###################################
Page 1 of 11