6. Prince

I know the Deftones use 8 strings now but since those are pretty expensive to get your 
hands on I decided to transcribe this song to a normal six string guitar so that everyone 
can play it.This is an awesome song one of the best on the new cd in my opinion.

Verse (Bass transcribed to guitar)
e|------------------0|
B|------------------6|
G|-------------------|
D|---7---------------|
A|-5---5-4-5-3-5-6---|
E|-------------------|

Chorus
e|---------------------------------------------------------------|
B|---------------------------------------------------------------|
G|-----------------------------5-5-10\6-6-6-6-6-6-6-6-6-6-6-6-6-6|
D|3-3-3-3-3-3-3-3-3-3-3-3-3-3--5-5-10\6-6-6-6-6-6-6-6-6-6-6-6-6-6|
A|3-3-3-3-3-3-3-3-3-3-3-3-3-3--3-3--8\4-4-4-4-4-4-4-4-4-4-4-4-4-4|
E|1-1-1-1-1-1-1-1-1-1-1-1-1-1--3-3--8\4-4-4-4-4-4-4-4-4-4-4-4-4-4|

Verse

Chorus

Breakdown
e|----------------------------------------------------------------|
B|----------------------------------------------------------------|
G|5-5-5-5-5-5-5-5-5-5-5-5-5-5-10\6-6-6-6-6-6-6-6-6-6-6-6-6-6------|
D|5-5-5-5-5-5-5-5-5-5-5-5-5-5-10\6-6-6-6-6-6-6-6-6-6-6-6-6-6------|
A|3-3-3-3-3-3-3-3-3-3-3-3-3-3--8\4-4-4-4-4-4-4-4-4-4-4-4-4-4------|
E|3-3-3-3-3-3-3-3-3-3-3-3-3-3--8\4-4-4-4-4-4-4-4-4-4-4-4-4-4--/13\|

End of Verse 3/Outro
e|---------------|
B|---------------|
G|5-5-5-5--------|
D|5-5-5-5--------|
A|3-3-3-3--------|
E|3-3-3-3--/13\10|
Page 1 of 11