6. Be Quiet And Drive (far away)

Guitar - Be quiet and drive (far away)
======================================
Tune (low to high): c#/g#/c#/f#/a#/d#

Chorus
|-0----0----0----0----9----9----9----9-|
|-9----9----9----9----7----7----7----7-|
|-7----7----7----7----7----7----7----7-|
|-0--0-0--0-0--0-0----0--0-0--0-0--0-0-|
|--------------------------------------|
|--------------------------------------|

Intro-fill
|-0----0----0----0----9----9-\\------|
|-9----9----9----9----7----7-\\------|
|-7----7----7----7----7----7-\\------|
|-0--0-0--0-0--0-0----0--0-0-\\------|
|------------------------------------|
|------------------------------------|

Verse
|------------------------------------------------------------------|
|------------------------------------------------------------------|
|-11----11-11----1111----11-11------11----11-12\---1111----11-12\--|
|--x-----x--x-----x-x-----x--x------11----11-12\---1111----11-12\--|
|--9-----9--9-----9-9-----9--9-------9-----9--9-----9-9-----9--9---|
|--0-----0--0-----0-0-----0--0-------9-----9--9-----9-9-----9--9---|

Verse Variation
This variation comes in at 0:40, 1:25, 2:20.
There are several other little variations on the strumming rythm both on verse and bride, but those are absolutely incidental and are not followed not even by deftones themselves while playing live.
|------------------------------------------------------------------|
|------------------------------------------------------------------|
|-11/12-12-12/14-14-14/12-12-12\11--11----11-12\---1111----11-12\--|
|--x/-x--x--x/-x--x--x/-x--x--x--x--11----11-12\---1111----11-12\--|
|--9/10-10-10/12-12-12/10-10-10\-9---9-----9--9-----9-9-----9--9---|
|------------------------------------9-----9--9-----9-9-----9--9---|

Bridge
|------------------------------------------------------------------|
|------------------------------------------------------------------|
|-11^---11^------1111----11^--------11----11-12\---1111----11-12\--|
|--x-----x--------x-x-----x---------11----11-12\---1111----11-12\--|
|--9^----9^-------9-9-----9^---------9-----9--9-----9-9-----9--9---|
|----(0)-----(0)------(0)------------9-----9--9-----9-9-----9--9---|

Verse, Chorus, Bridge, Verse, Chorus, Bridge

Outro
|----------------------------------------------------|
|----------------------------------------------------|
|----------------------------------------------------|
|-0-0-*4-*4-*4--0-0-*6-*6-*6--0-0-*4-*4-*4---3/44/55-|
|-0-0-*4-*4-*4--0-0-*6-*6-*6--0-0-*4-*4-*4---3/44/55-|
|-0-0-*4-*4-*4--0-0-*6-*6-*6--0-0-*4-*4-*4---3/44/55-|

|----------------------------------------------------|
|----------------------------------------------------|
|----------------------------------------------------|
|-0-0-*4-*4-*4--0-0-*4-*4-*4--0-0-*6-*6-*6---3/44/55-|
|-0-0-*4-*4-*4--0-0-*4-*4-*4--0-0-*6-*6-*6---3/44/55-|
|-0-0-*4-*4-*4--0-0-*4-*4-*4--0-0-*6-*6-*6---3/44/55-|

|----------------------------------------------------|
|----------------------------------------------------|
|----------------------------------------------------|
|-0-0---0-0--0---0-0--0-0--0--0-0-*4-*4-*4---3/44/55-|
|-0-0---0-0--0---0-0--0-0--0--0-0-*4-*4-*4---3/44/55-|
|-0-0---0-0--0---0-0--0-0--0--0-0-*4-*4-*4---3/44/55-|
        <<pm>>             <<pm>>

|----------------------------------------------------|
|----------------------------------------------------|
|----------------------------------------------------|
|-0-0-*4-*4-*4--0-0-*6-*6-*6--0-0-*4-*4-*4---3/44/55-|
|-0-0-*4-*4-*4--0-0-*6-*6-*6--0-0-*4-*4-*4---3/44/55-|
|-0-0-*4-*4-*4--0-0-*6-*6-*6--0-0-*4-*4-*4---3/44/55-|

Bridge
Page 1 of 11