5. Beauty School

Tabbed by: Daniel Frings
Email:Any errors or corrections feel free to comment or send me
an email at: daniel.frings@hotmail.com

Tuning:CGCFAd

Oh- and according to the GP5 version this song is in C#.
I've tabbed if for Drop C as its my preferred tuning.
If you want to play this song in C# simply 
play each note one fret lower.

Intro 0.00-0.22

d|----4--8---4---6---------4--8---4---6---|X2 |----4-4/| 
A|-6--------------------6---------------6-|   |-6------|
F|----------------------------------------|   |--------|
C|----------------------------------------|   |--------|
G|----------------------------------------|   |--------|
C|----------------------------------------|   |--------|

Verse (cont) 0.22-0.40

d|-/8-8-8-8-8-8-8-8-----------------------------------| X7
A|----------------------------------------------------|
F|----------------------------------------------------|
C|----------------------------------------------------|
G|----------------------------------------------------|
C|----------------------------------------------------|

Verse 0.40-0.49

d|-8-8-8-8-8\-3333/4-4444444/6-6666666/8-8[x16]-------|
A|----------------------------------------------------|
F|----------------------------------------------------|
C|----------------------------------------------------|
G|----------------------------------------------------|
C|----------------------------------------------------|

Pre-chorus 0.49-0.58 (worked it out! read across the top 
line for the rhythm)
          ^           ^           ^           ^ bend
d|-11--1111---11--1111---11--1111---11--1111----------|
A|--9---9-9----9---9-9----9---9-9----9---9-9----------|
F|--8---8-8----8---8-8----8---8-8----8---8-8----------|
C|----------------------------------------------------|
G|----------------------------------------------------|
C|----------------------------------------------------|

Chorus 0.58-1.29
d|----------------------------------------------------|
A|----------------------------------------------------|
F|--8-[x32] -5-[x16]--8-[x32]--10-[x32]---------------|
C|--6--------3--------6--------8----------------------|
G|--6--------3--------6--------8----------------------|
C|--6--------3--------6--------8----------------------|
[x##] <--denotes number of times to play that chord

Prechorus 1.29 - 1.38 ~~

Intro 1.42-1.52
Verse 1.52-2.09
Verse (cont) 2.09-2.19
Prechorus 2.19-2.28
Chorus 2.28 - 2.58
Intro 2.58- 3.07

Modified Chorus 3.07-4.11
Guitar 2 plays the 'regular' chorus section under this.

d|--8[x32]-6[x16]-8[x32]-6[x16]-6[x16]----------------| X2
A|----------------------------------------------------|
F|----------------------------------------------------|
C|----------------------------------------------------|
G|----------------------------------------------------|
C|----------------------------------------------------|

Outro
4.11-4.44 ~~ updated; but still very rough~~~

4.11-4.14
d|----------------------------------------------------|
A|----8-8-8-8-8-8-8-8---------------------------------|
F|----------------------------------------------------|
C|----------------------------------------------------|
G|----------------------------------------------------|
C|----------------------------------------------------|

4.14
d|------8---8---8---8---------------------------------|
A|--9-9---9---9---9---9-------------------------------|
F|-----------------------8----------------------------|
C|----------------------------------------------------|
G|----------------------------------------------------|
C|----------------------------------------------------|

4.17
d|--------8---8---8---8-------------------------------|
A|----9-9---9---9---9---9-----------------------------|
F|------------------------8--8-8-8-8------------------|
C|----------------------------------------------------|
G|----------------------------------------------------|
C|----------------------------------------------------|

d|-------------8---8---8---8--------------------------|
A|---------------9---9---9---9------------------------|
F|-8--8-8-8-8-----------------------------------------|
C|----------------------------------------------------|
G|----------------------------------------------------|
C|----------------------------------------------------|

************************************

| /   slide up
| \   slide down
| h   hammer-on
| p   pull-off
| ~   vibrato
| +   harmonic
| x   Mute note
| b   Bend
| pb  Pre-bend
| br  Bend release
| pbr Pre-bend release
| brb Bend release bend

************************************

This is my first tab I've submitted, so hopefully i 
haven't screwed it up to badly. The outro is far from perfect atm though.. Rate, 
comment and cheers!
Page 1 of 11