4. Elite

 

BAND:  Deftones
ALBUM: White Pony
SONG:  ELITE

D|-------------------|-----------------|
A|------------------*|-----------------|
F|-----------------x3|-----------------|
C|-0-2-0-2-3-2-0-2--*|-0-3---3-0-8---8-|
G|-0-2-0-2-3-2-0-2---|-0-3---3-0-8---8-|
C|-0-2-0-2-3-2-0-2---|-0-3---3-0-8---8-|

Intro #2

D|-----------------|
A|-----------------|
F|---------4-------|
C|-0-2-0-2-3-------|
G|-0-2-0-2-3-------|
C|-0-2-0-2---------|

Verse

D|-------------------|-----------------|-------------------|-----------------|
A|------------------*|-----------------|------------------*|-----------------|
F|-----------------x3|-----------------|-----------------x3|-----------------|
C|------------------*|-----------------|------------------*|-----------------|
G|---------3---------|-----------------|---------3---------|-----------------|
C|-0-2-0-2---2-0-2---|-0-3---3-0-8---8-|-0-2-0-2---2-0-2---|-0-3/----0-8\----|

Chorus 

D|---------|-------------------|  |---|-------------------|
A|---------|------------------*|  |-0-|------------------*|
F|-8-8-8-8-|---------4-------x2|x3|-0-|---------4-------x4|
C|-5-5-5-5-|-0-2-0-2-3--------*|  |-3-|-0-2-0-2-3--------*|
G|-5-5-5-5-|-0-2-0-2-3---------|  |---|-0-2-0-2-3---------|
C|-5-5-5-5-|-0-2-0-2-----------|  |---|-0-2-0-2-----------|

D|-------------------|-----------------|
A|------------------*|-----------------|
F|-----------------x8|-----------------|
C|------------------*|-----------------|
G|---------3---------|-----------------|
C|-0-2-0-2---2-0-2---|-2---------------|

			###################################
			# http://planeta.clix.pt/deftones #            
			###################################
Page 1 of 11