4. Around The Fur

Guitar - Around the fur
=======================
Tune (low to high): c#/g#/c#/f#/a#/d#
Credits to: bash

Verse (palm mute)
|------------------------------------|
|------------------------------------|
|------------------------------------|
|-7-7-7-7-7----7-7-7-5-5-5-5-6-6-6-6-|
|-5-5-5-5-5----5-5-5-3-3-3-3-6-6-6-6-|
|-0-0-0-0-0------------------6-6-6-6-|
<<<<<<<<<<<<<<<<<<pm>>>>>>>>>>>>>>>>>>

Verse Variation
|------------------------------------|
|------------------------------------|
|-7-7-7-7-7--------------------------|
|-7-7-7-7-7----7-7-7-5-5-5-5-6-6-6-6-|
|-5-5-5-5-5----5-5-5-3-3-3-3-6-6-6-6-|
|-0-0-0-0-0------------------6-6-6-6-|
               <<<<<<<<<pm>>>>>>>>>>

Pre-Chorus
|-0-|
|-0-|
|-0-|
|-0-|
|-0-|
|-0-|

Chorus
|----------------------------------------------------|---|
|----------------------------------------------------|---|
|---------------------------------------6-6--6-6-6-6-|---|
|-0--0--0-0-0-3-3-3-3--3-3-3-4-4-4--4-4-6-6--6-6-6-6-|-0-|
|-0--0--0-0-0-3-3-3-3--3-3-3-4-4-4--4-4-4-4--4-4-4-4-|-0-|
|-0--0--0-0-0-3-3-3-3--3-3-3-4-4-4--4-4--------------|-0-|

Interlude
Let the ring all the strings open, and let the feedback sound. At 2:24, you start playing this:
|-----------------------------------------------------------------------------|
|-----------------------------------------------------------------------------|
|-----------------------------------------------------------------------------|
|-------------------------------------4---------------------------------------|
|---------------------5------------------6--4-5-------------------------------|
|--6--------------------------------------------------------6-----------------|

|-----------------------------------------------------------------------------|
|-----------------------------------------------------------------------------|
|-----------------------------------------------------------------------------|
|-------------------------------------4---------------------------------------|
|--5-------------------------------------6--4-5-------------------------------|
|---------------------6------------------------------------6------------------|

Ending
|---------------------------------|--------|----------------------|
|---------------------------------|--------|----------------------|
|-------------------5-5-5-5-------|--------|----------------------|
|-0-0-0-0-0-0-0-0-0-5-5-5-5-6-6-6-|--------|----4-----------------|
|-0-0-0-0-0-0-0-0-0-3-3-3-3-6-6-6-|--0--0--|-------6--4-5---------|
|-0-0-0-0-0-0-0-0-0---------6-6-6-|--0--0--|-------------------6--|
                                     <pm>
Page 1 of 11