3. Digital Bath

 

Artist: Deftones
Title:Digital Bath
Album: White Pony

By:Brandon Blake
To: www.deftonesworld.com

Tuning: Dropped D then whole step down (CGCFAD)

verse main riff (light distortion with reverb)
D|-----------------------------------|
A|-----------------------------------|
F|------- ----------------------------|
C|---7-------7-0------------------| 8x
G|--4-------4-0------------------|
C|--4-------4-0-------------------|

verse fill-in (1)
D|----------------|--------------------------------------------------------------|
A|----------------|--7-------7----10-10-------13-12-------------------------------------|
F|-----------------|-------------------------- 
------------------------------------|
C|---7--7--------|--4-------4-----7---7-------10--9--------------------------------------| 
2x
G|--4--0---------|--------------------------------------------------------------|
C|--4--0---------|---------------------------------------------------------------|

verse Fill-in (2)
D|--------------------------------------------------------------------|
A|--------------------------------------------------------------------|
F|--------------------------------------------------------------------|2x
C|--------------------------------------------------------------------|
G|------------------7^1/2-----7--------5-------------------------------------|
C|-------3--------------------------------------------------------------|

Chorus
repeat verse main riff but with full distortion and end on C5 the first time

on the second chorus you do the same but you add in fill-ins 1 & 2

and that is pretty much the song  just listen for the rhythems and the 
changes and you'll be fine

.

Comments, corrections: chinoscrib@hotmail.com
===============================================================================
Page 1 of 11