2. Lhabia

Guitar - Lhabia
===============
Tune (low to high): c#/g#/c#/f#/a#/d#
Credits to: DeftoneSnake (ncakathrift@hotmail.com)

Verse
|---------------------------------------------------------------------|
|---------------------------------------------------------------------|
|---------------------------------------------------------------------|
|-0-2-2-2--0-2-2-2--0-2-2-2-2-3-3-3-0-2-2-2--0-2-2-2--0-2-2-2-2-0-0-0-|
|-0-2-2-2--0-2-2-2--0-2-2-2-2-------0-2-2-2--0-2-2-2--0-2-2-2-2-0-0-0-|
|-0-2-2-2--0-2-2-2--0-2-2-2-2-------0-2-2-2--0-2-2-2--0-2-2-2-2-0-0-0-|

Chorus
|--------------------|
|--------------------|
|--------------------|
|--------------------|
|-4h6-6-6-66---7---2-|
|-4h6-6-6-66---7---2-|
|-4h6-6-6-66---7---2-|

Verse, Chorus

Bridge
|----------------------------------------------------------|
|----------------------------------------------------------|
|-9-9-9-9-9-9-9-9-9-9-9-9-8-8-8-8-8-8-8-8-8-8-8------------|
|-7-7-7-7-7-7-7-7-7-7-7-7-6-6-6-6-6-6-6-6-6-6-6-2-2----0-0-|
|-7-7-7-7-7-7-7-7-7-7-7-7-6-6-6-6-6-6-6-6-6-6-6-2-2----0-0-|
|-7-7-7-7-7-7-7-7-7-7-7-7-6-6-6-6-6-6-6-6-6-6-6-2-2----0-0-|

Outro
|--------------------|
|--------------------|
|--------------------|
|-4h6-6-6--xx-7-xx-2-|
|-4h6-6-6--xx-7-xx-2-|
|-4h6-6-6--xx-7-xx-2-|

Verse, Chorus, Bridge
Page 1 of 11