2. Feiticeira

 

BAND:  Deftones
ALBUM: White Pony
SONG:  FEITICEIRA

By: ChIsUs >> RxMaScArArx@aol.com

standard tuning, but tuned down to C or B.  
*x*=harmonic 
a/b\a= bend 1 half step (or  one fret). ex: bend a to b then back to a. ( a 
/b\ x )
/= standard up slide
\=standard down slide

Intro/verse2: 8x
---------------- *9*  ------------------------------- *9*
---------------- *9*  ------------------------------- *9*
11-11-11-11 *11*  ------------------------------ *11*
11-11-11-11 *11*  11-11-11-11-11----------- *11
 9---9--9---9   *9*   9---9--9---9---9-----------  *9*
-------------------------------------------00-7-0-0-7-

main riff/chorus:8
------------------ ---------------------------------------
---------------------------------------- -----------------
11-11-11-11-11-11-11-11-11-11-11-11-----------
11-11-11-11-11-11-11-11-11-11-11-11--11-----8
 9---9--9---9--9--9---9---9--9---9--9---9--11-----8  
 0---0--0---0--0--0---0---0--0---0--0---0---9--0--6-0

Interlude:
-----------------------
-----------------------
10-10/11\10---------
10-10/11\10--11-11
 8---8----------11-11
------------------9--8

Outro: there are 14 beats in each measure. you hit one chord for every beat. 
except where beats 13 and 14 would be, you only hit one chord. so, instead of 
one chord per beat, for beats 13 and 14 you play one chord for those two 
beats. the notes you play only once (on beats 13 and 14) are italicized.
-----------------------------------------
------------------------------------------
 9----------------------------------------
10-----10/11\10----10-------10-10----
10-----10/11\10----10-------10-10----
 8------8----------------8---------9--8----
 --------------------------9-----------------

			#########################
			# www.deftonesworld.com #            
			#########################
Page 1 of 11