12. Pink Maggit

 

BAND:  Deftones
ALBUM: White Pony
SONG:  PINK MAGGIT
Author: Entilzha
Tuning: Dropped D and one step down

D|----------------|-----------|----------------------------------
A|----------------|-----------|----------------------------------
F|----3---------7-|-5h78-7-5-4|-----3----------------------------
C|---3--/-10---5--|-----------|----------------------------------
G|--1--/-8----5---|-----------|---1------------------------------
C|------0--------|-----------|--1-------------------------------
                            Interlude
                   Occurs Once

Chorus - Listen for Rhythm
D|-------------------------------------------------------------
A|-------------------------------------------------------------
F|-10--10--7---7-----------------------------------------------
C|-8---0---5---4-----------------------------------------------
G|-8---0---5---4-----------------------------------------------
C|-8---0---5---4-----------------------------------------------
Page 1 of 11