11. Damone [hidden track]

Guitar - Damone (hidden track on "Around the fur")
==================================================
Tune (low to high): c#/g#/c#/f#/a#/d#
Credits to: Albert Huang and Justin Shirah

Main-riff
|-------------------------------------------------------------------------|
|-------------------------------------------------------------------------|
|-13-13-13-13-13-13-13-13-13-13-13-13-13-13-13-13-13-13-13-13-13-13-13-13-|
|-11-11-11-11-11-11-11-11-11-11-11-11-12-12-12-12-12-12-12-12-12-12-12-12-|
|-11-11-11-11-11-11-11-11-11-11-11-11-12-12-12-12-12-12-12-12-12-12-12-12-|
|-11-11-11-11-11-11-11-11-11-11-11-11-12-12-12-12-12-12-12-12-12-12-12-12-|

|-------------------------------------------------|
|-------------------------------------------------|
|-9-9-9-9-9-9-9-9-9-9-9-9-9-9-9-9-9-9-9-9-9-9-9-9-|
|-7-7-7-7-7-7-7-7-7-7-7-7-8-8-8-8-8-8-8-8-8-8-8-8-|
|-7-7-7-7-7-7-7-7-7-7-7-7-8-8-8-8-8-8-8-8-8-8-8-8-|
|-7-7-7-7-7-7-7-7-7-7-7-7-8-8-8-8-8-8-8-8-8-8-8-8-|

Verse
|-------------------------|
|-------------------------|
|-------------------------|
|-------------------------|
|-/8----------------------|
|------------000-000-00-0-|

Chorus
The chorus has a tricky structure. First, you play the Main-riff once, then you play the following, and then you play the Main-riff again, twice.
|-----------------------------------------------------------------------------------------------|
|-----------------------------------------------------------------------------------------------|
|-9-9-9-9-9-9-9-9-9-9-9-9-9-9-9-9-9-9-9-9-9-9-9-9---9-9-9-9-9-9-9-9-9-9-9-9---------------------|
|-7-7-7-7-7-7-7-7-7-7-7-7-8-8-8-8-8-8-8-8-8-8-8-8---7-7-7-7-7-7-7-7-7-7-7-7-888888-101010101010-|
|-7-7-7-7-7-7-7-7-7-7-7-7-8-8-8-8-8-8-8-8-8-8-8-8---7-7-7-7-7-7-7-7-7-7-7-7-888888-101010101010-|
|-7-7-7-7-7-7-7-7-7-7-7-7-8-8-8-8-8-8-8-8-8-8-8-8---7-7-7-7-7-7-7-7-7-7-7-7-888888-101010101010-|

Verse, Chorus

Breakdown
|-------------------|
|-------------------|
|-------------------|
|-11^---0---11^---0-|
|-11^---0---11^---0-|
|-11^---0---11^---0-|

Outro
|-------------------------|
|-------------------------|
|-------------------------|
|-------------------------|
|-------------------------|
|-/8----------------------|
|-----------------------|

Chorus, Main-riff, Breakdown
Page 1 of 11