10. Passenger

 

BAND:  Deftones
ALBUM: White Pony
SONG:  PASSENGER

Intro/Verse
D|-----------------------------------------------------------------------------|
A|-----------10-10-10-10-----------8-8-8-8-----------6-6-6-6-----------6-6-6-6-|
F|-----------------------------------------------------------------------------|
C|-----------7--7--7--7------------5-5-5-5-----------4-4-4-4-----------4-4-4-4-|
G|-----------------------------------------------------------------------------|
D|-4-4-4-4-4-------------4-4-4-4-4---------4-4-4-4-4---------4-4-4-4-4---------|

Slow Riff

D|--------------|
A|----------7---|
F|------------5-|
C|-----5--------|
G|---9----------|
C|-9------9-----|

Bridge

D|--------|
A|--------|
F|--------|
C|-0-(32x)| 
G|-0------|
C|-0------|

Chorus

D|-------------------------------------------------|
A|-------------------------------------------------|
F|-------------------------------------------------|
C|-7-7-7-7-7-7-6-6-6-6-6-6-5-5-5-5-5-5-4-4-4-4-4-4-|
G|-4-4-4-4-4-4-4-4-4-4-4-4-4-4-4-4-4-4-4-4-4-4-4-4-|
C|-4-4-4-4-4-4-4-4-4-4-4-4-4-4-4-4-4-4-4-4-4-4-4-4-|

D|-------------------------------------------------------|
A|-------------------------------------------------------|
F|---------------7-----------------------9---------------|
C|-----4-4-4-4-4---4-4-4-4-4-9-4-4-4-4-4---4-4-4-4-4-----|
G|-----4-4-4-4-4---4-4-4-4-4---4-4-4-4-4---4-4-4-4-4-----|
C|-2^r-4-4-4-4-4---4-4-4-4-4---4-4-4-4-4---4-4-4-4-4-2^r-|

Slow Riff

D|--------------|
A|----------7---|
F|------------5-|
C|-----5--------|
G|---9----------|
C|-9------9-----|

Verse

D|---|--------------|-----5----7---|
A|-9-|--------------|------------7-|  
F|---|--------------|-9------------|  
C|---|-----5--------|--------9-----|  
G|---|---9------9-5-|--------------|
C|---|-9------9-----|---9----------|

End

D|---|
A|---|
F|-6-|
C|-5-|
G|-5-|
C|-5-|

			###################################
			# http://planeta.clix.pt/deftones #            
			###################################
Page 1 of 11