10. Mx

www.deftonesworld.com
DEFTONES - "Around the Fur"
--------------------------------------
Guitar - Mx
===========
Tune (low to high): c#/g#/c#/f#/a#/d#
Credits to: Rap_sucks (stephen_brinson@hotmail.com)

Main-riff
|-------------|
|-------------|
|-------------|
|--1-0---3-4--|
|--1-0---3-4--|
|--1-0---3-4--|

MainRiff-Fill
|-------------|
|-------------|
|-------------|
|-4-x-1-1-1-1-|
|-4-x-1-1-1-1-|
|-4-x-1-1-1-1-|

Verse
|----|---------------------|------|----|------------------------------------------|
|----|---------------------|-Main-|----|-----5---------5---5-----5---------5---5--|
|----|---------------------|-Riff-|----|---7---------7---7-----7---7-----7---7----|
|-*4-|--4----4-----5----4--|------|-*4-|-4---------4---------5---------4----------|
|-*4-|--4----4-----5----4--|------|-*4-|-4---------4---------5---------4----------|
|-*4-|--4----4-----5----4--|------|-*4-|-4---------4---------5---------4----------|

Chorus
|------------|-------------|
|------------|-------------|
|------------|-------------|
|--4-4-4-44--|--4-5-55/-9--|
|--4-4-4-44--|--4-5-55/-9--|
|--4-4-4-44--|--4-5-55/-9--|

Verse, Chorus

Outro
|------|-------------|------|----------------|------|-------------|------|------|
|-Main-|-------------|-Main-|----------------|-Main-|-------------|-Main-|------|
|-Riff-|-------------|-Riff-|-------*3*4*5*5-|-Riff-|-------------|-Riff-|------|
|------|-4-x-1-1-1-1-|------|-4-x-1-*3*4*5*5-|------|-4-x-1-1-1-1-|------|--*4--|
|------|-4-x-1-1-1-1-|------|-4-x-1-*3*4*5*5-|------|-4-x-1-1-1-1-|------|--*4--|
|------|-4-x-1-1-1-1-|------|-4-x-1----------|------|-4-x-1-1-1-1-|------|--*4--|
                                                          <<<pm>>>

Outro-Verse
|---------------------|------------------------------------------|
|---------------------|-----5---------5---5-----5---------5---5--|
|---------------------|---7---------7---7-----7---7-----7---7----|
|--4----4-----5----4--|-4---------4---------5---------4----------|
|--4----4-----5----4--|-4---------4---------5---------4----------|
|--4----4-----5----4--|-4---------4---------5---------4----------|

Chorus

End
|-----|------|------|
|-----|-Main-|------|
|-----|-Riff-|------|
|--0--|------|-4--1-|
|--0--|------|-4--1-|
|--0--|------|-4--1-|
               <pm>
Page 1 of 11