1. My Own Summer (shove it)

Guitar - My own summer (shove it)
=================================
Tune (low to high): c#/g#/c#/f#/a#/d#
Credits to: Munky161 (loco666@t-online.de)

Verse
|-------------------------------------|
|-------------------------------------|
|-------------------------------------|
|-------------------------------------|
|-------------------------------------|
|-0-11-12-0-11\8-0-8-0-8\7-0-8-5--(5)-|

Chorus
|----------------------------------|
|----------------------------------|
|----------------------------------|
|-0-7-8-0-8-5-0-5-0-5/7-0-8-4--(4)-|
|-0-7-8-0-8-5-0-5-0-5/7-0-8-4--(4)-|
|-0-7-8-0-8-5-0-5-0-5/7-0-8-4--(4)-|

Verse, Chorus

Bridge
|---------------------------------------------------------------|
|---------------------------------------------------------------|
|-10101010101010101010101010101010----------0-------------0-0---|
|--8-8-8-8-8-8-8-8-8-8-8-8-8-8-8-8--5-5-5-8-0---5-5-5-8-8-0-0---|
|--8-8-8-8-8-8-8-8-8-8-8-8-8-8-8-8--5-5-5-8-0---5-5-5-8-8-0-0---|
|--8-8-8-8-8-8-8-8-8-8-8-8-8-8-8-8--5-5-5-8-0---5-5-5-8-8-0-0---|

Breakdown
Let ring the open strings from the bridge, until the feedback ends. Then make sparely some soft harmonics, especially on the 4-5th frets of the two sharpest strings. On some points u should also put your left hands softly muting the strings on the 5th fret, while your right hand pics the three sharpest strings on the 1st fret.

Chorus, Bridge

Bridge End
|---------0-------------0-0---|
|---------0-------------0-0---|
|---------0-------------0-0---|
|-5-5-5-8-0---5-5-5-8-8-0-0---|
|-5-5-5-8-0---5-5-5-8-8-0-0---|
|-5-5-5-8-0---5-5-5-8-8-0-0---|

Chorus
Page 1 of 11