“No Ordinary Love” (Sade Cover) inc. “Change (in the house of flies)” single – 2000

Artist: Deftones
Song: No Ordinary Love (Sade Cover)
Tunning: Standard GDAE

G---------------------------
D--------------0------------
A---2--2---0-2---0-2--2-0--2
E--------0------------------

thats it listen to song for timing!!

Downloaded from www.taborama.com

“Crenshaw” inc. “Change (in the house of flies)” single – 2000

Deftones - Crenshaw
Tabbed By: Steven
EMail: predwarrior15@cox.net

Tuning: Drop (Db-Ab-Db-Gb-Bb-Eb) [Tune down 1/2 step, then tune 
the E string to the D string (3rd from the top)]

(P.S. Find the strumming pattern/number of strums yourself.
Just search for "Deftones - Crenshaw (Studio Version)" or something
like that, on KaZaA.  There's a live version, but studio is clearer)

Intro:
Gb|-------13---------------^13---------|
Db|-------0----------------^0----------|
Ab|-------11---------------^11---------|
Db|-------0----------------^0----------|
Strum This ^   Then bend up ^ slightly

First Part:
Db|-------13-----|
Ab|-------11-----|
Db|-------11-----|
Strum This ^ Up and Down 16 Times

Rest Into Intro:
Db|-0-|
Ab|-0-|
Db|-0-| Then immediately repeat the intro, first part, and the rest
4 more times.

Second Part:
Db|-7--9----7--9----7--9----7--9--12--11-|Strum This Last Note 9 Times
Ab|-7--9----7--9----7--9----7--9--12--11-|Then Immediately For The
Db|-7--9----7--9----7--9----7--9--12--11-|Last 7 Strums Play..

Second Part (Cnt'd):
Db|-13-|
Ab|-11-| Repeat The Second Part <3 Times>
Db|-11-|

Db|-7--9----7--9----7--9----7--9--12--0~~~~|
Ab|-7--9----7--9----7--9----7--9--12--0~~~~|
Db|-7--9----7--9----7--9----7--9--12--0~~~~|
                         (~) Let Ring ^

Play this for however many times it does it

The Final Bridge Rest Type Of Riff <1st Part>:
Gb|--13-|
Db|--0--|
Ab|--11-|
Db|--0--|
This ^ Is Strummed A Shit Load Of Times, Then..

The Final Bridge Rest Type Of Riff <2nd Part>:
Gb|--18-|
Db|--0--| Repeat The 1st & 2nd Part <2 Times>, Then..
Ab|--16-|
Db|--0--|

 FIGURE THE REST OF THE SONG OUT!!!!!!!!!!!!!
 COS' I'VE DONE GIVEN YOU ALL THE FUCKIN' RIFFS!!!!!!!!!!!

Downloaded from www.taborama.com

“Be Quiet And Drive-remix” (feat. Jonah & DJ Crook) || inc. “BQAD CD single 2 ” – 1998

 

BAND:  Deftones
SONG:  BE QUIET AND DRIVE (acoustic remix)

Intro

e---------
B---------
G--11--11-
d--11--11-
A--9 --9 -
D------9 -

Chorus

e---------------------------------------
B-----------11-------------------11-----
G--11-----11---11-------11-----11---11--
d--11--11---------11----11---11--------11
A--9 ----------------0--9 ---------------
D-----------------------9 -9-------------

Chorus #2

e----------------------------
B----------------------------
G--11--x-x-x-x--11--x-x-x-x-x
d--11--x-x-x-x--11--x-x-x-x-x
A--9 --x-x-x-x--9 --x-x-x-x-x
D------x-x-x-x--9 --x-x-x-x-x

Bridge
e--------
B--------
G--5-5-6-
d--5-5-6-
A--5-5-6-
D--5-5-6-

			###################################
			# http://planeta.clix.pt/deftones #            
			###################################

“Pink Maggit” (rap/metal version) || exc. “White Pony ” – 2000

 

BAND:  Deftones
ALBUM: White Pony
SONG:  PINK MAGGOT

Intro & 3rd Chorus 
Ab------10--10------10-------------------------------
Fb--10--10--10-10-10--10-10-10-10-10-10-10-0
Cb-------------------------8-0-0-0-8-0-0-0-8-0-0-0
Gb-------------------------8-0-0-0-8-0-0-0-8-0-0-0
Cb-------------------------8-0-0-0-8-0-0-0-8-0-0-0

Verse
Fb------------10-10-10-10-
Cb--5-4-8-0-0-0-0-0-0---
Gb--5-4-8-0-0-0-0-0-0---
Cb--5-4-8-0-0-0-0-0-0---

Chorus/Bridge 
Fb------------10-10-10-------------------
Db--8-8-8-8-0-0-0-0-0-5-5-5-5-4-4-4-
Ab--8-8-8-8-0-0-0-0-0-5-5-5-5-4-4-4-
Db--8-8-8-8-0-0-0-0-0-5-5-5-5-4-4-4-

			###################################
			# http://planeta.clix.pt/deftones #            
			###################################

“Wicked” (Korn feat. Chino Moreno) || inc. on Korn’s “Life is Peachy” – 1996

 

BAND:  Korn/Chino
ALBUM: Life is Peachy
SONG:  WICKED

7-string guitar tuned down a full step

Verse and intro

E||--------------------
B||--------------------
C||--11---9/11\9--7----
G||--------------------
D||--------------------
A||--------------------
E||--------------------

Chorus

E||------------------
B||------------------
G||------------------
D||---------5-4------
A||---5-5-5-4-3-2-5--
E||---3-3-3-2-----3--

Pre-verse

E||----------------------------------------
B||---17-17-17-16-16-16-15-15-15-14-14-14--
B||---20-20-20-19-19-19-18-18-18-17-17-17--
G||----------------------------------------
D||----------------------------------------
A||----------------------------------------
E||----------------------------------------

			###################################
			# http://planeta.clix.pt/deftones #                   
			###################################

“Teething” || inc. on “The Crow II – City of Angels” O.S.T. – 1995

 

BAND:  Deftones
ALBUM: The crow - 2 (ost)
SONG:  TEETHING

Drop D tuning (DAGBe)

Riff 1

e|-----------------------------|
b|-----------------------------|
G|--------------------------*--|
D|-----------------------------|
A|-4-3-5-3-4-3---3--3-5-3-4----|
D|-4-3-5-3-4-3---3--3-5-3-4----|

Riff 2

E|--------------------------------|
B|--------------------------------|
G|--------------------------------|
D|--------------------------------|
A|-4p3---4p3---4p3----3-3-3-4-4-4-|
D|-4p3-0-4p3-0-4p3-0--3-3-3-4-4-4-|

Riff 3

E|--------------|
B|--------------|
G|--------------|
D|--------------|
A|-4-3-5-3-4-3--|
D|-4-3-5-3-4-3--|

Riff 4

E|------------------------------------------|
B|------------------------------------------|
G|------------------------------------------|
D|------------------------------------------|
A|-13-h-14-13-h-14-13-h-14-13-h-14-14-h-15--|
D|-13-h-14-13-h-14-13-h-14-13-h-14-14-h-15--|

Riff 5

E|-----------------------------------------|
B|-----------------------------------------|
G|-----------------------------------------|
D|-----------------------------------------|
A|-14h15p14-14h15p14-|D|-14h15p14-14h15p14-|
D|-----------------------------------------| 

			###################################
			# http://planeta.clix.pt/deftones #                   
			###################################

“Can’t Even Breathe” || inc. on “Escape From L.A.” O.S.T. – 1995

 

BAND:  Deftones
ALBUM: Escape From L.A. (ost)
SONG:  CAN'T EVEN BREATHE

Intro 

eb ||------------------------------|| 
bb ||------------------------------|| 
gb ||------------------------------|| 
db ||------------------------------|| 
ab ||-9-/-7-7--7--9-/-7-7--7---0---|| 
Db ||-9-/-7-7--7--9-/-7-7--7---0---|| 

Verse 

eb ||------------------------------|| 
bb ||------------------------------||         
gb ||------------------------------|| 
db ||------------------------------|| 
ab ||-0--0-0-5-4-4-4-4-------------||         
Db ||-0--0-0-5-4-4-4-4-------------|| 

Chorus 

eb ||------------------------------|| 
bb ||------------------------------||     
gb ||------------------------------|| 
db ||------------------------------|| 
ab ||-5-5-5-5-5--4-4-4-4-----------||     
Db ||-5-5-5-5-5--4-4-4-4-----------|| 

Bridge 

eb ||---------------------------------------------------------|| 
bb ||---------------------------------------------------------|| 
gb ||---------------------------------------------------------|| 
db ||--------------------------------------------{5}{5}{5}----|| 
ab ||-9-7-7-7-9-7-7-7-------------------{5}{5}{5}-------------|| 
db ||-9-7-7-7-9-7-7-7-{5}{5}{5}{4}{4}{4}----------------------|| 

Outro 
eb||------------|| 
bb||------------|| 
gb||------------|| 
db||-0----------|| 
ab||-0----------|| 
Db||-0----------|| 
Let Ring--------| 

			###################################
			# http://planeta.clix.pt/deftones #                   
			###################################

“The Chauffeur” || inc. on “The Duran Duran Tribute Album” – 1997

 

BAND:  Deftones
ALBUM: Duran Duran Tribute
SONG:  The Chauffeur

Verse
G:-7-7-7-777/9-9-9-999/10-10-10-101010/6-6-6
D:------------------------------------------
A:-5-5-5-555/7-7-7-777/8--8--8--8-8-8-/4-4-4
D:------------------------------------------

(Sun comes down)part
G:-12-12-12-121212\11-11-11-111111\9-9-9-999/11-11-11-111111/
D:---------------------------------------------------------  start again
A:-10-10-10-101010\9--9--9--9-9-9-\7-7-7-777/9--9--9--9-9-9-/

Drum comes in part
G:-14-14-14-14-14
D:--------------- keep going
A:-12-12-12-12-12

Other part
G:-15-15-15-15-15-15-15-15-15\13-13-13-13-13-13-13-13-14-keep doing last
D:-------------------------------------------------------note
A:-13-13-13-13-13-13-13-13-13\11-11-11-11-11-11-11-11-12-

			#########################
			# www.deftonesworld.com #            
			#########################

“Bumble D” || Around The Fur outtake

 

BAND:  Deftones
SONG:  Bumble D
By: Jeff schwind >>  aroundthefur79@aol.com

D]------------1-1-1--2-0--1-2-0---------1-1-1--2-0-1-2-0-------------------]
A]------------1-1-1--2-0--1-2-0---------1-1-1--2-0-1-2-0-------------------]
D]------------1-1-1--2-0--1-2-0---------1-1-1--2-0-1-2-0-------------------]

// This is only the main riff

			#########################
			# www.deftonesworld.com #                   
			#########################

“God’s Hands” || Around The Fur outtake

 

BAND:  Deftones
SONG:  God's Hands

Intro/Chorus

E|---------------------------|
B|---------------------------|
G|---------------------------|
D|-----4-5--5-----5-4--2-----|
A|--2--2-3--3--2--3-2--0--6--|
E|--0----------0----------4--|

E|-----------------------------------|
B|-----------------------------------|
G|----------5/777/555----------------|
D|-----4-5--x/xxx/xxx-----5-4--2-----|
A|--2--2-3--3/555/333--2--3-2--0--6--|
E|--0------------------0----------4--|

E|-------------------------------------|
B|-------------------------------------|
G|----------7/999/1010-----------------|
D|-----4-5--x/xxx/x-x-------5-4--2-----|
A|--2--2-3--5/777/8-8----2--3-2--0--6--|
E|--0--------------------0----------4--|

end with:

E|-----|
B|-----|  let ring
G|-----|
D|-----|
A|--2--|
E|--0--|

Verse

E|--5/7--7-5-4--|
B|--6/8--8-6-5--|
G|--5/7--7-5-4--|
D|--------------|
A|--------------|
E|--------------|

Bridge

E|------------------------------------|
B|------------------------------------|
G|------------------------------------|
D|--4/5-5/4-4/5-5/7-------------------|
A|--2/3-3/2-2/3-3/5--6/7-7/6-6/4-4/3--|
E|-------------------4/5-5/4-4/2-2/1--|

E|-------------------------|
B|-------------------------|
G|-------------------------|
D|--4/55-x-x-x------22-22--|
A|--2/33-x-x-x-5-4--22-22--|
E|-------x-x-x-3-2--00-00--|

Outro

E|----------------|
B|----------------|
G|----------------|
D|-3/44-4-77-4----|
A|-1/22-2-55-6-7--|
E|-------------5--|

End

E|---------------------|
B|---------------------|
G|---------------------|
D|-3/44-4-77--4--------|
A|-1/22-2-55--6--7--4--|
E|---------------5--2--|

			#########################
			# www.deftonesworld.com #
			#########################