11. Kimdracula

-------------------------------------------------------------------------------
  			         KIMDRACULA
-------------------------------------------------------------------------------

TUNING: Drop F# (7 Strings Guitar)

-------------------------------------------------------------------------------
1. Verse
-------------------------------------------------------------------------------

C#|---------------------------|
G#|---------------------------|
E |--12/14-14-14-14-12-12-12--|
B |---------------------------|
F#|--10/12-12-12-12-10-10-10--|
C#|--0-----0--0--0--0--0--0---|
F#|--0-----0--0--0--0--0--0---|

C#|-------------------------------|
G#|-------------------------------|
E |--75-5-5-5-5-5-5-5/7-7-7-7-5--|
B |-------------------------------|
F#|--53-3-3-3-3-3-3-3/5-5-5-5-3--|
C#|--0---0-0-0-0-0-0-0---0-0-0-0--|
F#|--0---0-0-0-0-0-0-0---0-0-0-0--|

-------------------------------------------------------------------------------
2. Chorus
-------------------------------------------------------------------------------

C#|------------------------------------------------------------------------|
G#|------------------------------------------------------------------------|
E |------------------------------------------------------------------------|
B |--10-10-10-10-10-10-10--7-7-7-7-7-7-7-7--9-9-9-9-9-9-9-9-9-9-9-9-9-9-9--|
F#|--8--8--8--8--8--8--8---5-5-5-5-5-5-5-5--7-7-7-7-7-7-7-7-7-7-7-7-7-7-7--|
C#|--8--8--8--8--8--8--8---5-5-5-5-5-5-5-5--7-7-7-7-7-7-7-7-7-7-7-7-7-7-7--|
F#|--8--8--8--8--8--8--8---5-5-5-5-5-5-5-5--7-7-7-7-7-7-7-7-7-7-7-7-7-7-7--|

C#|------------------------------------------------------------------------|
G#|------------------------------------------------------------------------|
E |------------------------------------------------------------------------|
B |--14-14-14-14-14-14-14-14-14-14-14-14-14--9-9-9-9-9-9-9-9-9-9-9-9-9-9-9-|
F#|--12-12-12-12-12-12-12-12-12-12-12-12-12--7-7-7-7-7-7-7-7-7-7-7-7-7-7-7-|
C#|--12-12-12-12-12-12-12-12-12-12-12-12-12--7-7-7-7-7-7-7-7-7-7-7-7-7-7-7-|
F#|--12-12-12-12-12-12-12-12-12-12-12-12-12--7-7-7-7-7-7-7-7-7-7-7-7-7-7-7-|

C#|------------------------------------------------------------------------|
G#|------------------------------------------------------------------------|
E |------------------------------------------------------------------------|
B |--10-10-10-10-10-10-10-10-10-10-10-10-10--9-9-9-9-9-9-9-9-9-9-9-9-9-9-9-|
F#|--8--8--8--8--8--8--8--8--8--8--8--8--8---7-7-7-7-7-7-7-7-7-7-7-7-7-7-7-|
C#|--8--8--8--8--8--8--8--8--8--8--8--8--8---7-7-7-7-7-7-7-7-7-7-7-7-7-7-7-|
F#|--8--8--8--8--8--8--8--8--8--8--8--8--8---7-7-7-7-7-7-7-7-7-7-7-7-7-7-7-|

C#|-------------------------------------------------|
G#|-------------------------------------------------|
E |-------------------------------------------------|
B |--12-12-12-12-12-12-12-12--10-10-10--10--10--10--|
F#|--10-10-10-10-10-10-10-10--8--8--8---8---8---8---|
C#|--10-10-10-10-10-10-10-10--8--8--8---8---8---8---|
F#|--10-10-10-10-10-10-10-10--8--8--8---8---8---8---|

-------------------------------------------------------------------------------
3. Bridge
-------------------------------------------------------------------------------

C#|-----------------------------|
G#|-----------------------------|
E |-----------------------------|
B |-----------------------------|
F#|-----------------------------|
C#|--3/5-5-5--5--5/8-8-8-8-8-8--|
F#|--3/5-5-5--5--5/8-8-8-8-8-8--|

-------------------------------------------------------------------------------
TABBED BY: Rats!Rats!Rats! 2007
-------------------------------------------------------------------------------

10. Combat

Tabbed by Devin Davis
Awesome song on Deftones new album "Saturday Night Wrist"
Tuned A Half step down Drop D
This is how i play it on a 6 string guitar.
Stef plays it on a 7 string

Intro
|---------------------------------|
|---------------------------------|
|---------------------------------|
|---------------------------------| x 1
|-----------10----8-8-8-8-8-8-8-8-|
|-10--10-10----10-----------------|

|-----------------------------------------------------------------|
|-----------------------------------------------------------------|
|-----------------------------------------------------------------|
|----------10------------------------------10---------------------| x 2
|----------------8-8-8-8-8-8-8-8-----------------8-8-8-8-8-8-8-8--|
|-10--10-10---10------------------10--10-10---10------------------|

Chorus 1
|--------------------------------------------------------|
|--------------------------------------------------------|
|--------------------------------------------------------|
|-5-5----5-3-3-8-----5-5------8-5----5-5----8-5--5-5--3--|
|-5-5-x8-5-3-3-8-x1--5-5-x 8--8-5-x1-5-5-x4-8-5--5-5--3--|
|-5-5----5-3-3-8-----5-5------8-5----5-5----8-5--5-5--3--|

Verse
|-------------------|
|-------------------|
|-----------5----5--|
|-1----0----5----5--|
|-1----0----3----3--|
|-1----0----5----5--|

Prechorus
|---------------------------------|
|---------------------------------|
|-5--5-5--5--5--------------------|
|-5--5-5--5--5--x--3-3-3-3-3-3-3--|
|-3--3-3--3--3--x--3-3-3-3-3-3-3--|
|-5--5-5--5--5--x--3-3-3-3-3-3-3--|

Chorus 2
|------------------------------------------------------------------------|
|------------------------------------------------------------------------|
|------------------------------------------------------------------------|
|-5-5----5-3-3-8----5-5----5-3-3----8-5-5-5-8-5-5-5-3-6-6-3-6----6-6-6-3-|
|-5-5-x8-5-3-3-8-x1-5-5-x8-5-3-3-x1-8-5-5-5-8-5-5-5-3-6-6-3-6-x2-6-6-6-3-|
|-5-5----5-3-3-8----5-5----5-3-3----8-5-5-5-8-5-5-5-3-6-6-3-6----6-6-6-3-|

Bridge
|-----------------------------------------------------------|
|-----------------------------------------------------------|
|-----------------------------------------------------------|
|-0----1----5----3----1-----5----3----1-----5----3----1-----|
|-0-x8-1-x8-5-x8-3-x8-1-x16-5-x8-3-x8-1-x16-5-x8-3-x8-1-x16-|
|-0----1----5----3----1-----5----3----1-----5----3----1-----|

Ending
|---------------------------------------|
|---------------------------------------|
|---------------------------------------|
|-5-5---5-5--3-6-6-3-6-----5-5--5-5--3--|
|-5-5---5-5--3-6-6-3-6-x3--5-5--5-5--3--|
|-5-5---5-5--3-6-6-3-6-----5-5--5-5--3--|

Hope you like it!
If your have any questions, e-mail me at crayola_22_88@yahoo.com

9. Pink Cellphone

Tabbed by Devin Davis
Weird song on Deftones new album "Saturday Night Wrist"
Tuned A Half step down Drop D
Im not sure if there is actually any guitar in this song at all.
If there is guitar, it has very weird effects.
This is all i could come up with for people who want to play along to this song. Try 
around with some odd effects to get the right sound.

|-----------------------------------------------------------|
|-----------------------------------------------------------|
|-----------------------------------------------------------|
|-------1--------1--------1--------1--------1---------1-----|
|-----------------------------------------------------------|
|-1--1-----1--1-----1--1-----1--1-----1--1-----1--1------1--|

|------------------------------------------------------------------|
|-16-16-16-16-16-16-16-16-16-16-16-16-16-16-16-16-16/////////////--|
|-x--x--x--x--x--x--x--x--x--x--x--x--x--x--x--x--x----------------|
|-13-13-13-13-13-13-13-13-13-13-13-13-13-13-13-13-13/////////////--|
|------------------------------------------------------------------|
|------------------------------------------------------------------|

If you have any questions E-mail me at Crayola_22_88@yahoo.com

8. Rats! Rats! Rats!

-------------------------------------------------------------------------------
  	   	             RATS! RATS! RATS!
-------------------------------------------------------------------------------

Here it is the greatest song from Saturday Night Wrist (in my opinion).
It takes a long time to be tabbed so enjoy it!

TUNING: Drop F# (7 Strings Guitar)

-------------------------------------------------------------------------------
1. Intro
-------------------------------------------------------------------------------
The rhythm is very easy if you learn it.
There are irregular measures so check it out, it goes like this:

     ----  ----  ----  ----   
 7   |  |  |  |  |  |  |  |   |     |     |
 4   |  |  |  |  |  |  |  |   |     |     |
     o  o  o  o__o  o  o  o   o     o_____o

C#|----------------------------------------|
G#|----------------------------------------|
E |--10-10-10-10----10-10-10--10----10-----|
B |--11-11-11-11----11-11-11--11----11-----|
F#|--9--9--9--9-----9--9--9---9-----9------|
C#|--9--9--9--9-----9--9--9---9-----9------|
F#|--9--9--9--9-----9--9--9---9-----9------|

     ----  ----  ----  ----   
 6   |  |  |  |  |  |  |  |   |     |
 4   |  |  |  |  |  |  |  |   |     |
     o  o  o  o__o  o  o  o   o     o

C#|----------------------------------------|
G#|----------------------------------------|
E |--10-10-10-10----10-10-10--10----10-----|
B |--11-11-11-11----11-11-11--11----11-----|
F#|--9--9--9--9-----9--9--9---9-----9------|
C#|--9--9--9--9-----9--9--9---9-----9------|
F#|--9--9--9--9-----9--9--9---9-----9------|

to verse...
C#|----------------------|
G#|----------------------|
E |----------------------|
B |--5/8--7--------------|
F#|----------7--5/7--4*--|
C#|--3/6--5--------------|
F#|----------7--5/7------|

-------------------------------------------------------------------------------
2. Verse 1
-------------------------------------------------------------------------------

     ----  ----  ----  ----   
 7   |  |  |  |  |  |  |  |   |     |     |             --------
 4   |  |  |  |  |  |  |  |   |     |     |			|
     o  o  o  o__o  o  o  o   o     o_____o			|
								|
C#|----------------------------------------|			|
G#|----------------------------------------|			|
E |--10-10-10-10----10-10-10--10----10-----|			|
B |--11-11-11-11----11-11-11--11----11-----|			|
F#|--9--9--9--9-----9--9--9---9-----9------|			|
C#|--9--9--9--9-----9--9--9---9-----9------|			|
F#|--9--9--9--9-----9--9--9---9-----9------|			|
								| x4
								|
     ----  ----  ----  ----   					|
 6   |  |  |  |  |  |  |  |   |     |				|
 4   |  |  |  |  |  |  |  |   |     |				|
     o  o  o  o__o  o  o  o   o     o				|
								|
C#|----------------------------------------|			|
G#|----------------------------------------|			|
E |--10-10-10-10----10-10-10--10----10-----|			|
B |--11-11-11-11----11-11-11--11----11-----|			|
F#|--9--9--9--9-----9--9--9---9-----9------|			|
C#|--9--9--9--9-----9--9--9---9-----9------|			|
F#|--9--9--9--9-----9--9--9---9-----9------|		--------

to chorus...
C#|-------------|
G#|-------------|
E |--6---6---6--|
B |--7---7---7--|
F#|--5---5---5--|
C#|--5---5---5--|
F#|--5---5---5--|

-------------------------------------------------------------------------------
3. Chorus
-------------------------------------------------------------------------------

     ---------------¬   ------------¬
                   x4              x4
C#|-------------------|--------------|
G#|-------------------|--------------|
E |-------------------|--------------|
B |--10--10--10-10-10-|-8--8--8-8-8--|
F#|--10--10--10-10-10-|-8--8--8-8-8--|
C#|--8---8---8--8--8--|-6--6--6-6-6--|
F#|--8---8---8--8--8--|-6--6--6-6-6--|

     ---------------¬   ------------¬
                   x4              x4 
C#|-------------------|--------------|-----|
G#|-------------------|--------------|-----|
E |-------------------|--------------|-----|
B |--10--10--10-10-10-|-8--8--8-8-8--|-----|
F#|--8---8---8--8--8--|-6--6--6-6-6--|--0--|
C#|--8---8---8--8--8--|-6--6--6-6-6--|--0--|
F#|--8---8---8--8--8--|-6--6--6-6-6--|--0--|

    ----------------------¬
                         x2
C#|------------------------|---------|
G#|------------------------|---------|
E |------------------------|---------|
B |------------------------|---------| repeat this
F#|--1-1-1-0--0---1-1-1-0--|--x-x-x--|
C#|--1-1-1-0--0---1-1-1-0--|--x-x-x--|
F#|--1-1-1-0--0---1-1-1-0--|--x-x-x--| 

-------------------------------------------------------------------------------
4. Verse 2
-------------------------------------------------------------------------------
repeat this twice...
C#|------------------------------------|------------------------------------|
G#|------------------------------------|------------------------------------|
E |-10-10-10-10----10-10-10--10----10--|--10-10-10-10----10-10-10--10----10-|
B |-11-11-11-11----11-11-11--11----11--|--11-11-11-11----11-11-11--11----11-|
F#|-9--9--9--9-----9--9--9---9-----9---|--9--9--9--9-----9--9--9---9-----9--|
C#|-9--9--9--9-----9--9--9---9-----9---|--9--9--9--9-----9--9--9---9-----9--|
F#|-9--9--9--9-----9--9--9---9-----9---|--9--9--9--9-----9--9--9---9-----9--|

then...
     ----  ----  ----  ----   
 7   |  |  |  |  |  |  |  |   |     |     |
 4   |  |  |  |  |  |  |  |   |     |     |
     o  o  o  o__o  o  o  o   o     o_____o

C#|----------------------------------------|
G#|----------------------------------------|
E |--12-12-12-12----12-12-12--12----12-----|
B |--11-11-11-11----11-11-11--11----11-----|
F#|--9--9--9--9-----9--9--9---9-----9------|
C#|--9--9--9--9-----9--9--9---9-----9------|
F#|--9--9--9--9-----9--9--9---9-----9------|

     ----  ----  ----  ----   
 6   |  |  |  |  |  |  |  |   |     |
 4   |  |  |  |  |  |  |  |   |     |
     o  o  o  o__o  o  o  o   o     o

C#|----------------------------------------|
G#|----------------------------------------|
E |--12-12-12-12----12-12-12--12----12-----|
B |--11-11-11-11----11-11-11--11----11-----|
F#|--9--9--9--9-----9--9--9---9-----9------|
C#|--9--9--9--9-----9--9--9---9-----9------|
F#|--9--9--9--9-----9--9--9---9-----9------|

and then...
C#|------------------------------------|------------------------------------|
G#|------------------------------------|------------------------------------|
E |-10-10-10-10----10-10-10--10----10--|--10-10-10-10----10-10-10--10----10-|
B |-11-11-11-11----11-11-11--11----11--|--11-11-11-11----11-11-11--11----11-|
F#|-9--9--9--9-----9--9--9---9-----9---|--9--9--9--9-----9--9--9---9-----9--|
C#|-9--9--9--9-----9--9--9---9-----9---|--9--9--9--9-----9--9--9---9-----9--|
F#|-9--9--9--9-----9--9--9---9-----9---|--9--9--9--9-----9--9--9---9-----9--|

repeat the whole part...

and then to chorus...
C#|-------------|
G#|-------------|
E |--6---6---6--|
B |--7---7---7--|
F#|--5---5---5--|
C#|--5---5---5--|
F#|--5---5---5--|

-------------------------------------------------------------------------------
5. Bridge
-------------------------------------------------------------------------------
Coming from the Chorus...
				       P.M.------------------¬
C#|-------------------------|        |-------------------------|
G#|-------------------------|        |-------------------------|
E |-------------------------|        |-------------------------|
B |-------------------------|   or   |-------------------------|
F#|--x-x-x---x-x-x---x-x-x--|        |--0-0-0---0-0-0---0-0-0--|
C#|--x-x-x---x-x-x---x-x-x--|        |--0-0-0---0-0-0---0-0-0--|
F#|--x-x-x---x-x-x---x-x-x--|        |--0-0-0---0-0-0---0-0-0--|

(I like more the first version)

This part is really hard to play at first so practice it slowly.
Check the accents and get the style of it.

     >              >                 >
     -------    -------    -------    -------
     |-|-|-|    |-|-|-|    |-|-|-|    |-|-|-|
     | | | |    | | | |    | | | |    | | | |
     o o o o    o o o o    o o o o    o o o o
C#|--------------------------------------------|
G#|--------------------------------------------|
E |--------------------------------------------|
B |--------------------------------------------|
F#|--5-4-3-4----3-4-5-4----3-4-3-4----5-4-3-4--|
C#|--5-4-3-4----3-4-5-4----3-4-3-4----5-4-3-4--|
F#|--5-4-3-4----3-4-5-4----3-4-3-4----5-4-3-4--|

C#|--------------------|
G#|--------------------|
E |--------------------|
B |--7--5--8--7--5--8--|
F#|--5--3--6--5--3--6--|
C#|--5--3--6--5--3--6--|
F#|-(5--3--6--5--3--6)-|

( )= if you want, play those notes too.

-------------------------------------------------------------------------------
6. Verse 3
-------------------------------------------------------------------------------
repeat this twice...
C#|------------------------------------|------------------------------------|
G#|------------------------------------|------------------------------------|
E |-10-10-10-10----10-10-10--10----10--|--10-10-10-10----10-10-10--10----10-|
B |-11-11-11-11----11-11-11--11----11--|--11-11-11-11----11-11-11--11----11-|
F#|-9--9--9--9-----9--9--9---9-----9---|--9--9--9--9-----9--9--9---9-----9--|
C#|-9--9--9--9-----9--9--9---9-----9---|--9--9--9--9-----9--9--9---9-----9--|
F#|-9--9--9--9-----9--9--9---9-----9---|--9--9--9--9-----9--9--9---9-----9--|

then...
C#|------------------------------------|------------------------------------|
G#|------------------------------------|------------------------------------|
E |-12-12-12-12----12-12-12--12----12--|--12-12-12-12----12-12-12--12----12-|
B |-11-11-11-11----11-11-11--11----11--|--11-11-11-11----11-11-11--11----11-|
F#|--9--9--9--9-----9--9--9---9-----9--|--9--9--9--9-----9--9--9---9-----9--|
C#|--9--9--9--9-----9--9--9---9-----9--|--9--9--9--9-----9--9--9---9-----9--|
F#|--9--9--9--9-----9--9--9---9-----9--|--9--9--9--9-----9--9--9---9-----9--|

then repeat this five times...
C#|------------------------------------|------------------------------------|
G#|------------------------------------|------------------------------------|
E |-10-10-10-10----10-10-10--10----10--|--10-10-10-10----10-10-10--10----10-|
B |-11-11-11-11----11-11-11--11----11--|--11-11-11-11----11-11-11--11----11-|
F#|-9--9--9--9-----9--9--9---9-----9---|--9--9--9--9-----9--9--9---9-----9--|
C#|-9--9--9--9-----9--9--9---9-----9---|--9--9--9--9-----9--9--9---9-----9--|
F#|-9--9--9--9-----9--9--9---9-----9---|--9--9--9--9-----9--9--9---9-----9--|

Chino screams...and then...
			C#|-------------|
			G#|-------------|
			E |--6---6---6--|
			B |--7---7---7--|
			F#|--5---5---5--|
			C#|--5---5---5--|
			F#|--5---5---5--|

-------------------------------------------------------------------------------
7. Song Structure
-------------------------------------------------------------------------------

Intro
Verse 1
Chorus
Verse 2
Chorus
Bridge
Verse 3

-------------------------------------------------------------------------------
8. Symbols
-------------------------------------------------------------------------------
             |
             |
4th notes    o

             ----
             |  |
             |  |
8th notes    o  o

             -------
             |-|-|-|
             | | | |
16th notes   o o o o

-------------------------------------------------------------------------------
TABBED BY: Rats!Rats!Rats! 2007

7. Xerces

This is how i play the song xerces in standard tuning, it sounds real good. im not going 
tab the strumming patterns because they are very easy to figure out
tuning is Dadgbe

Pretty easy to play just figure out the rythm
intro
[----------------------------------]
[--2--4--6--2----------------------]
[--x--x--x--x----------------------]
[--3--5--7--3--8--3----------------]
[--4--6--8--4--8--3----------------]
[--------------8--3----------------]

verse
basically the same except like this
stef holds the 3's on one of the measures
[------------------------]
[-2----------------------]
[-x----------------------]
[-3--8--3----------------]
[-4--8--3----------------]
[----8--3----------------]

chorus
[--------------------------------------------------------]
[--------------------------------------------------------]
[---------------7-7-7-7-7--------------------------------]
[--3--3-3-3-3---7-7-7-7-7--7-7-7-7-7-7-7-7-7-7-----------]
[--3--3-3-3-3---5-5-5-5-5--7-7-7-7-7-7-7-7-7-7-----------]
[--3--3-3-3-3--------------7-7-7-7-7-7-7-7-7-7-----------]
then there is another part but i usually dont play it so im not gonna put it in. its 
easy to figure out though.

thats about it, if you would like me to tab out any other deftones songs then email me 
deftones44330@yahoo.com

6. “U,U,D,D,L,R,L,R,A,B,Select,Start”

Tabbed by Devin Davis
Awesome instrumental on Deftones new album "Saturday Night Wrist"
Tuned A Half step down Drop D
This is how i play it on a 6 string guitar.
Doesnt really have that much of a structure so try to firgure out where it all goes. I tried to put most of it in order.

|----------------------------------------------------------------------|
|----------------------------------------------------------------------|
|-------------7---5--5/7-7--8-7----------------7----5--5/7-7--8-7------|
|---------7-----5---------------8-5----------7----5---------------7----|
|-------5---------------------------8-8-8/10------------------------8--|
|-5-5-5----------------------------------------------------------------|

|------------------------------------------------------------------------------------------------------------------------------------|
|------------------------------------------------------------------------------------------------------------------------------------|
|------------------------------------------------------------------------------------------------------------------------------------|
|---8-8-8-8-8-8-8-8-8-8-8-8-8-8-8-8-7-7-7-7-7-7-7-7-7-7-7-7-7-7-7-7-8-8-8-8-8-8-8-8-8-8-8-8-8-8-8-8-7-7-7-7-7-7-7-7-7-7-7-7-7-7-7-7--|
|-8----------------------------------------------------------------------------------------------------------------------------------|
|------------------------------------------------------------------------------------------------------------------------------------|

|----------3--3/5--5/6--5---3-----------3--5--6--5-------------------------------------------------|
|----------x-------------------3-4p3-4-------------------------------------------------------------|
|----7-----5----------------------------------------------------8---7-8--8/10-7---8---7-8--8/10-7--|
|-7-----5--------------------------------------------5--7--7/8-------------------------------------|
|--------------------------------------------------------------------------------------------------|
|--------------------------------------------------------------------------------------------------|

|----------------------------------------------------------------|
|----------------------------------------------------------------|
|-7-----7-----7-----7-----8--7/8-8/10-7-----7-----7-----7-----7--|
|-7-----7-----7-----7-----------------------7-----7-----7-----7--|
|-5-----5-----5-----5-----------------------5-----5-----5-----5--|
|-5-----5-----5-----5-----------------------5-----5-----5-----5--|

Thats pretty much it.
If you have any questions E-mail me at crayola_22_88@yahoo.com

5. Mein

Tabbed by Devin Davis
My LEAST favorite song on Deftones new album "Saturday Night Wrist" Probably just
of Serj from SOAD sings in it, but still a pretty fun song to play.
Tuned A Half step down Drop D
This is how i play it on a 6 string guitar.
Stef plays it on a 7 string

Intro
|-----------------|
|-----------------|
|-7------8--------|
|-x-(x8)-x--(x8)--| x2
|-6------6--------|
|--------9--------|

Verse
|-----------------------|
|-----------------------|
|10------5------4-------|
|-x-(x4)-x-(x4)-x-(x8)--| x4
|-9------4------2-------|
|---------------5-------|

Chorus
|-----------------------------------------------------------------------|
|-----------------------------------------------------------------------|
|-----------------------------------------------------------------------|
|-10-10-10-10-10-9--4-4-4-4-4-4-4-4--10-10-10-10-10-9-4-1-1-1-1-1-1-1-1-| x2
|-10-10-10-10-10-9--4-4-4-4-4-4-4-4--10-10-10-10-10-9-4-1-1-1-1-1-1-1-1-|
|-10-10-10-10-10-9--4-4-4-4-4-4-4-4--10-10-10-10-10-9-4-1-1-1-1-1-1-1-1-|

Bridge
|-----------------------------------------------------------------|
|-----------------------------------------------------------------|
|-----------------------------------------------------------------|
|-8-8-8-8-4-4-4-4-7-7-7-7-7-7-7-7-8-8-8-8-4-4-4-4-0-0-0-0-0-0-0-0-| x2
|-8-8-8-8-4-4-4-4-5-5-5-5-5-5-5-5-8-8-8-8-4-4-4-4-0-0-0-0-0-0-0-0-|
|-8-8-8-8-4-4-4-4-5-5-5-5-5-5-5-5-8-8-8-8-4-4-4-4-0-0-0-0-0-0-0-0-|

Ending
|-----------------|
|-----------------|
|-5---5--5--------|
|-5---5--5--7-7-7-| x8
|-3---3--3--5-5-5-|
|-5---5--5--8-8-8-|

If your have any questions, email me at crayola_22_88@yahoo.com

4. Cherry Waves

This is my favorite song of of the "newer" deftones cd. This is how i play it and i 
it sounds pretty damn good. If you would like me to tab any other deftones songs just e-mail 
at deftones44330@yahoo.com, or just IM me at deftones44330.
tuning(low to high):cgcfad

(Intro)
Guitar 1(sounds good with a little bit of delay)
[------------------------9-----------------------------------------]
[--7-----------------------------8---------------------------------]
[------------------------------------------------------------------]
[------------------------------------------------------------------]
[------------------------------------------------------------------]
[------------------------------------------------------------------]

Guitar 2
[-9---9---9---9---9---9---9---9---9---9---9---9---9---9---9---9----]
[---7---7---7---7---7---7---7---7---8---8---8---8---8---8---8---8--]
[------------------------------------------------------------------]
[------------------------------------------------------------------]
[------------------------------------------------------------------]
[------------------------------------------------------------------]

Guitar 1
[------------------------------------------------------------------]
[--7---------------------7-----------------------------------------]
[--------------------------------8---------------------------------]
[------------------------------------------------------------------]
[------------------------------------------------------------------]
[------------------------------------------------------------------]

Guitar 2
[-9---9---9---9---9---9---9---9---9---9---9---9---9---9---------------]
[---7---7---7---7---7---7---7---7---8---8---8---8---8---8-10-10-10-10-]
[---------------------------------------------------------------------]
[---------------------------------------------------------------------]
[---------------------------------------------------------------------]
[---------------------------------------------------------------------]

(Verse)
Guitar 1
in a sea of waves                  we hug the same plank (saw your end)
[------------------------9-----------------------------------------]
[--7-----------------------------8---------------------------------]
[------------------------------------------------------------------]
[------------------------------------------------------------------]
[------------------------------------------------------------------]
[------------------------------------------------------------------]

Guitar 2
[-9---9---9---9---9---9---9---9---9---9---9---9---9---9---9---9----]
[---7---7---7---7---7---7---7---7---8---8---8---8---8---8---8---8--]
[------------------------------------------------------------------]
[------------------------------------------------------------------]
[------------------------------------------------------------------]
[------------------------------------------------------------------]

Guitar 1
just as i had rehearsed it       over in my brain  (I saw your end)
[------------------------------------------------------------------]
[--7---------------------7-----------------------------------------]
[--------------------------------8---------------------------------]
[------------------------------------------------------------------]
[------------------------------------------------------------------]
[------------------------------------------------------------------]

Guitar 2
[-9---9---9---9---9---9---9---9---9---9---9---9---9---9---9---9----]
[---7---7---7---7---7---7---7---7---8---8---8---8---8---8---8---8--]
[------------------------------------------------------------------]
[------------------------------------------------------------------]
[------------------------------------------------------------------]
[------------------------------------------------------------------]

.....if the waves
(Bridge A)for those of you that dont want to count its 8 measures
which makes it a total of 64 beats
 (Guitar 1 and 2)               SUCK!!!!
[------------------------------------------------------------------]
[------------------------------------------------------------------]
[-4-4-4-4-4-4-4-4-4-4-4-4-4-4-4-4-4-4-4-4-4-4-4-4-4-4-4-4-4-4-4-4--]
[-4-4-4-4-4-4-4-4-4-4-4-4-4-4-4-4-4-4-4-4-4-4-4-4-4-4-4-4-4-4-4-4--]
[-2-2-2-2-2-2-2-2-2-2-2-2-2-2-2-2-2-2-2-2-2-2-2-2-2-2-2-2-2-2-2-2--]
[------------------------------------------------------------------]

 (Guitar 1 and 2)
 You in                         And you drown           if like
[------------------------------------------------------------------]
[------------------------------------------------------------------]
[-4-4-4-4-4-4-4-4-4-4-4-4-4-4-4-4-4-4-4-4-4-4-4-4-4-4-4-4-4-4-4-4--]
[-4-4-4-4-4-4-4-4-4-4-4-4-4-4-4-4-4-4-4-4-4-4-4-4-4-4-4-4-4-4-4-4--]
[-2-2-2-2-2-2-2-2-2-2-2-2-2-2-2-2-2-2-2-2-2-2-2-2-2-2-2-2-2-2-2-2--]
[------------------------------------------------------------------]

 (Chorus)(Guitar 1 and 2)
you                   should
[-----------------------------------------]
[-----------------------------------------]
[-----------------------------------------]
[-2-2-2-2-2-2-2-2-2-2-2-2-2-2-2-2---------]
[-2-2-2-2-2-2-2-2-2-2-2-2-2-2-2-2---------]
[-2-2-2-2-2-2-2-2-2-2-2-2-2-2-2-2---------]

  sink     down                   beneath
[---------------------------------------------------]
[---------------------------------------------------]
[---------------------------------------------------]
[-11-11-11-11-11-11-11-11-11-11-11-11-11-11-11-11---]
[-11-11-11-11-11-11-11-11-11-11-11-11-11-11-11-11---]
[-11-11-11-11-11-11-11-11-11-11-11-11-11-11-11-11---]

ill   swim
[-----------------------------------------]
[-----------------------------------------]
[-----------------------------------------]
[-2-2-2-2-2-2-2-2-2-2-2-2-2-2-2-2---------]
[-2-2-2-2-2-2-2-2-2-2-2-2-2-2-2-2---------]
[-2-2-2-2-2-2-2-2-2-2-2-2-2-2-2-2---------]

                  down
[---------------------------------------------------]
[---------------------------------------------------]
[---------------------------------------------------]
[-11-11-11-11-11-11-11-11-11-11-11-11-11-11-11-11---]
[-11-11-11-11-11-11-11-11-11-11-11-11-11-11-11-11---]
[-11-11-11-11-11-11-11-11-11-11-11-11-11-11-11-11---]

would      you
[-----------------------------------------]
[-----------------------------------------]
[-----------------------------------------]
[-2-2-2-2-2-2-2-2-2-2-2-2-2-2-------------]
[-2-2-2-2-2-2-2-2-2-2-2-2-2-2-------------]
[-2-2-2-2-2-2-2-2-2-2-2-2-2-2-5b6---------]

         would you?
[-----------------------------------------]
[-----------------------------------------]
[-6---------------------------------------]
[-6---------------------------------------]
[-4---------------------------------------]
[-----------------------------------------]

verse intro
Guitar 1
[-11--12--11------------------------------]
[-------------------------12--------------]
[-----------------------------12----------]
[-----------------------------------------]
[-----------------------------------------]
[-----------------------------------------]

Guitar 2
[-9---9---9---9---9---9---9---9---9---9---9---9---9---9---9---9----]
[---7---7---7---7---7---7---7---7---8---8---8---8---8---8---8---8--]
[------------------------------------------------------------------]
[------------------------------------------------------------------]
[------------------------------------------------------------------]
[------------------------------------------------------------------]

Guitar 1
[-11--12--11------------------------------]
[-------------------------12--------------]
[-----------------------------12----------]
[-----------------------------------------]
[-----------------------------------------]
[-----------------------------------------]

Guitar 2
[-9---9---9---9---9---9---9---9---9---9---9---9---9---9---------------]
[---7---7---7---7---7---7---7---7---8---8---8---8---8---8-10-10-10-10-]
[---------------------------------------------------------------------]
[---------------------------------------------------------------------]
[---------------------------------------------------------------------]
[---------------------------------------------------------------------]

Verse
Guitar 1
you had the anchors over my             neck   (saw your end)
[------------------------9-----------------------------------------]
[--7-----------------------------8---------------------------------]
[------------------------------------------------------------------]
[------------------------------------------------------------------]
[------------------------------------------------------------------]
[------------------------------------------------------------------]

Guitar 2
[-9---9---9---9---9---9---9---9---9---9---9---9---9---9---9---9----]
[---7---7---7---7---7---7---7---7---8---8---8---8---8---8---8---8--]
[------------------------------------------------------------------]
[------------------------------------------------------------------]
[------------------------------------------------------------------]
[------------------------------------------------------------------]

Guitar 1
I liked it at first but the more you laughed the crazier i came
[------------------------------------------------------------------]
[--7---------------------7-----------------------------------------]
[--------------------------------8---------------------------------]
[------------------------------------------------------------------]
[------------------------------------------------------------------]
[------------------------------------------------------------------]

Guitar 2
[-9---9---9---9---9---9---9---9---9---9---9---9---9---9---9---9----]
[---7---7---7---7---7---7---7---7---8---8---8---8---8---8---8---8--]
[------------------------------------------------------------------]
[------------------------------------------------------------------]
[------------------------------------------------------------------]
[------------------------------------------------------------------]

.....if the waves
(Bridge A)
 (Guitar 1 and 2)               SUCK!!!!
[------------------------------------------------------------------]
[------------------------------------------------------------------]
[-4-4-4-4-4-4-4-4-4-4-4-4-4-4-4-4-4-4-4-4-4-4-4-4-4-4-4-4-4-4-4-4--]
[-4-4-4-4-4-4-4-4-4-4-4-4-4-4-4-4-4-4-4-4-4-4-4-4-4-4-4-4-4-4-4-4--]
[-2-2-2-2-2-2-2-2-2-2-2-2-2-2-2-2-2-2-2-2-2-2-2-2-2-2-2-2-2-2-2-2--]
[------------------------------------------------------------------]

 (Guitar 1 and 2)
 You in                         And you drown           if like
[------------------------------------------------------------------]
[------------------------------------------------------------------]
[-4-4-4-4-4-4-4-4-4-4-4-4-4-4-4-4-4-4-4-4-4-4-4-4-4-4-4-4-4-4-4-4--]
[-4-4-4-4-4-4-4-4-4-4-4-4-4-4-4-4-4-4-4-4-4-4-4-4-4-4-4-4-4-4-4-4--]
[-2-2-2-2-2-2-2-2-2-2-2-2-2-2-2-2-2-2-2-2-2-2-2-2-2-2-2-2-2-2-2-2--]
[------------------------------------------------------------------]

 (Chorus)(Guitar 1 and 2)
you                   should
[-----------------------------------------]
[-----------------------------------------]
[-----------------------------------------]
[-2-2-2-2-2-2-2-2-2-2-2-2-2-2-2-2---------]
[-2-2-2-2-2-2-2-2-2-2-2-2-2-2-2-2---------]
[-2-2-2-2-2-2-2-2-2-2-2-2-2-2-2-2---------]

  sink     down                   beneath
[---------------------------------------------------]
[---------------------------------------------------]
[---------------------------------------------------]
[-11-11-11-11-11-11-11-11-11-11-11-11-11-11-11-11---]
[-11-11-11-11-11-11-11-11-11-11-11-11-11-11-11-11---]
[-11-11-11-11-11-11-11-11-11-11-11-11-11-11-11-11---]

ill   swim
[-----------------------------------------]
[-----------------------------------------]
[-----------------------------------------]
[-2-2-2-2-2-2-2-2-2-2-2-2-2-2-2-2---------]
[-2-2-2-2-2-2-2-2-2-2-2-2-2-2-2-2---------]
[-2-2-2-2-2-2-2-2-2-2-2-2-2-2-2-2---------]

                  down
[---------------------------------------------------]
[---------------------------------------------------]
[---------------------------------------------------]
[-11-11-11-11-11-11-11-11-11-11-11-11-11-11-11-11---]
[-11-11-11-11-11-11-11-11-11-11-11-11-11-11-11-11---]
[-11-11-11-11-11-11-11-11-11-11-11-11-11-11-11-11---]

would      you?
[-----------------------------------------]
[-----------------------------------------]
[-----------------------------------------]
[-2-2-2-2-2-2-2-2-2-2-2-2-2-2-------------]
[-2-2-2-2-2-2-2-2-2-2-2-2-2-2-------------]
[-2-2-2-2-2-2-2-2-2-2-2-2-2-2-5b6---------]

 is   that      what     you    want?
[---------------------------------------------------]
[---------------------------------------------------]
[---------------------------------------------------]
[-11-11-11-11-11-11-11-11-11-11-11-11-11-11-11-11---]
[-11-11-11-11-11-11-11-11-11-11-11-11-11-11-11-11---]
[-11-11-11-11-11-11-11-11-11-11-11-11-11-11-11-11---]

would      you?
[-----------------------------------------]
[-----------------------------------------]
[-----------------------------------------]
[-2-2-2-2-2-2-2-2-2-2-2-2-2-2-------------]
[-2-2-2-2-2-2-2-2-2-2-2-2-2-2-------------]
[-2-2-2-2-2-2-2-2-2-2-2-2-2-2-5b6---------]

 well     that's    what    you've     got
[---------------------------------------------------]
[---------------------------------------------------]
[---------------------------------------------------]
[-11-11-11-11-11-11-11-11-11-11-11-11-11-11-11-11---]
[-11-11-11-11-11-11-11-11-11-11-11-11-11-11-11-11---]
[-11-11-11-11-11-11-11-11-11-11-11-11-11-11-11-11---]

Bridge B
Guitar 1 and 2
                 waves
[-----------------------------------------]
[------------------------2-2-2-2----------]
[------------------------2-2-2-2----------]
[-4-4-4-4-2---0--5-5-5-5-5-5-5-5----------]
[-4-4-4-4-2---0--5-5-5-5-5-5-5-5----------]
[-4-4-4-4-2---5--5-5-5-5-5-5-5-5----------]
                     after
[-----------------------------------------]
[------------------------2-2-2-2----------]
[------------------------2-2-2-2----------]
[-4-4-4-4-2---0--5-5-5-5-5-5-5-5----------]
[-4-4-4-4-2---0--5-5-5-5-5-5-5-5----------]
[-4-4-4-4-2---5--5-5-5-5-5-5-5-5----------]
                     waves
[-----------------------------------------]
[------------------------2-2-2-2----------]
[------------------------2-2-2-2----------]
[-4-4-4-4-2---0--5-5-5-5-5-5-5-5----------]
[-4-4-4-4-2---0--5-5-5-5-5-5-5-5----------]
[-4-4-4-4-2---5--5-5-5-5-5-5-5-5----------]

[-----------------------------------------]
[------------------------2-2-2-2----------]
[------------------------2-2-2-2----------]
[-4-4-4-4-2---0--5-5-5-5-5-5-5-5----------]
[-4-4-4-4-2---0--5-5-5-5-5-5-5-5----------]
[-4-4-4-4-2---5--5-5-5-5-5-5-5-5----------]

[----------------------------------------------------------------]
[-12-12-12-12-12-12-12-12-12-12-12-12-12-12-12-12----------------]
[-11-11-11-11-11-11-11-11-11-11-11-11-11-11-11-11----------------]
[-11-11-11-11-11-11-11-11-11-11-11-11-11-11-11-11----------------]
[--9--9--9--9--9--9--9--9--9--9--9--9--9--9--9--9----------------]
[--9--9--9--9--9--9--9--9--9--9--9--9--9--9--9--9----------------]

[----------------------------------------------------------------]
[-11-11-11-11-11-11-11-11-11-11-11-11-11-11-11-11----------------]
[-11-11-11-11-11-11-11-11-11-11-11-11-11-11-11-11----------------]
[-11-11-11-11-11-11-11-11-11-11-11-11-11-11-11-11----------------]
[--9--9--9--9--9--9--9--9--9--9--9--9--9--9--9--9----------------]
[--9--9--9--9--9--9--9--9--9--9--9--9--9--9--9--9----------------]

[----------------------------------------------------------------]
[-12-12-12-12-12-12-12-12-12-12-12-12-12-12-12-12----------------]
[-11-11-11-11-11-11-11-11-11-11-11-11-11-11-11-11----------------]
[-11-11-11-11-11-11-11-11-11-11-11-11-11-11-11-11----------------]
[--9--9--9--9--9--9--9--9--9--9--9--9--9--9--9--9----------------]
[--9--9--9--9--9--9--9--9--9--9--9--9--9--9--9--9----------------]
                                                   if like
[----------------------------------------------------------------]
[-11-11-11-11-11-11-11-11-11-11-11-11-11-11-11-11----------------]
[-11-11-11-11-11-11-11-11-11-11-11-11-11-11-11-11----------------]
[-11-11-11-11-11-11-11-11-11-11-11-11-11-11-11-11----------------]
[--9--9--9--9--9--9--9--9--9--9--9--9--9--9--9--9----------------]
[--9--9--9--9--9--9--9--9--9--9--9--9--9--9--9--9----------------]

(Chorus)(Guitar 1 and 2)
you                   should
[-----------------------------------------]
[-----------------------------------------]
[-----------------------------------------]
[-2-2-2-2-2-2-2-2-2-2-2-2-2-2-2-2---------]
[-2-2-2-2-2-2-2-2-2-2-2-2-2-2-2-2---------]
[-2-2-2-2-2-2-2-2-2-2-2-2-2-2-2-2---------]

  sink     down                   beneath
[---------------------------------------------------]
[---------------------------------------------------]
[---------------------------------------------------]
[-11-11-11-11-11-11-11-11-11-11-11-11-11-11-11-11---]
[-11-11-11-11-11-11-11-11-11-11-11-11-11-11-11-11---]
[-11-11-11-11-11-11-11-11-11-11-11-11-11-11-11-11---]

ill   swim
[-----------------------------------------]
[-----------------------------------------]
[-----------------------------------------]
[-2-2-2-2-2-2-2-2-2-2-2-2-2-2-2-2---------]
[-2-2-2-2-2-2-2-2-2-2-2-2-2-2-2-2---------]
[-2-2-2-2-2-2-2-2-2-2-2-2-2-2-2-2---------]

                  down
[---------------------------------------------------]
[---------------------------------------------------]
[---------------------------------------------------]
[-11-11-11-11-11-11-11-11-11-11-11-11-11-11-11-11---]
[-11-11-11-11-11-11-11-11-11-11-11-11-11-11-11-11---]
[-11-11-11-11-11-11-11-11-11-11-11-11-11-11-11-11---]

would      you?
[-----------------------------------------]
[-----------------------------------------]
[-----------------------------------------]
[-2-2-2-2-2-2-2-2-2-2-2-2-2-2-------------]
[-2-2-2-2-2-2-2-2-2-2-2-2-2-2-------------]
[-2-2-2-2-2-2-2-2-2-2-2-2-2-2-5b6---------]

 is   that      what     you    want?
[---------------------------------------------------]
[---------------------------------------------------]
[---------------------------------------------------]
[-11-11-11-11-11-11-11-11-11-11-11-11-11-11-11-11---]
[-11-11-11-11-11-11-11-11-11-11-11-11-11-11-11-11---]
[-11-11-11-11-11-11-11-11-11-11-11-11-11-11-11-11---]

would      you?
[-----------------------------------------]
[-----------------------------------------]
[-----------------------------------------]
[-2-2-2-2-2-2-2-2-2-2-2-2-2-2-------------]
[-2-2-2-2-2-2-2-2-2-2-2-2-2-2-------------]
[-2-2-2-2-2-2-2-2-2-2-2-2-2-2-5b6---------]

 well     that's    what    you've     got
[---------------------------------------------------]
[---------------------------------------------------]
[---------------------------------------------------]
[-11-11-11-11-11-11-11-11-11-11-11-11-11-11-11-11---]
[-11-11-11-11-11-11-11-11-11-11-11-11-11-11-11-11---]
[-11-11-11-11-11-11-11-11-11-11-11-11-11-11-11-11---]

would      you?
[-----------------------------------------]
[-----------------------------------------]
[-----------------------------------------]
[-2-2-2-2-2-2-2-2-2-2-2-2-2-2-------------]
[-2-2-2-2-2-2-2-2-2-2-2-2-2-2-------------]
[-2-2-2-2-2-2-2-2-2-2-2-2-2-2-5b6---------]

[---------------------------------------------------]
[---------------------------------------------------]
[---------------------------------------------------]
[-11-11-11-11-11-11-11-11-11-11-11-11-11-11-11-11---]
[-11-11-11-11-11-11-11-11-11-11-11-11-11-11-11-11---]
[-11-11-11-11-11-11-11-11-11-11-11-11-11-11-11-11---]

you   who?
[-----------------------------------------]
[-----------------------------------------]
[-----------------------------------------]
[-2-2-2-2-2-2-2-2-2-2-2-2-2-2-------------]
[-2-2-2-2-2-2-2-2-2-2-2-2-2-2-------------]
[-2-2-2-2-2-2-2-2-2-2-2-2-2-2-5b6---------]

Outro
Guitar 1
[------------------------9-----------------------------------------]
[--7-----------------------------8---------------------------------]
[------------------------------------------------------------------]
[------------------------------------------------------------------]
[------------------------------------------------------------------]
[------------------------------------------------------------------]

Guitar 2
[-9---9---9---9---9---9---9---9---9---9---9---9---9---9---9---9----]
[---7---7---7---7---7---7---7---7---8---8---8---8---8---8---8---8--]
[------------------------------------------------------------------]
[------------------------------------------------------------------]
[------------------------------------------------------------------]
[------------------------------------------------------------------]

3. Beware

-------------------------------------------------------------------------------
			     Beware - Deftones
-------------------------------------------------------------------------------
Tabbed by:Riff Driven
Email:forsaken.forever@yahoo.com

Tuning:CGCFAd

I'm tabbing this song out according to the album version,
please listen to the song for rhythm and timing.
This is played on a 6 string tuned down to "C G C F A d",
Chino plays all guitar until Stephen kicks in at the end
for the heavy stuff with a 7 string.

Hit the body of the guitar at the very start for opening distortion:

Intro:
d|----------------------------------------------------------------|
A|----------------------------------------------------------------|
F|-10------10------10------10------10------10------10------10-----|
C|-----12------12------12------12------12------12------12------12-|
G|----------------------------------------------------------------|
C|----------------------------------------------------------------|

Verse:
d|-------------------------------------------12------------------|
A|-----------------0----------------------10---------------------|
F|-10------10-------------10------10-----------------10----------|
C|-----12------12-----12------12------12---------12------12-(4x)-|
G|---------------------------------------------------------------|
C|---------------------------------------------------------------|

Pre-chorus:
d|----------------------------------------------------|------------------+5+-|
A|-4-----4-----4-----4-----4-----4-----4-----4--------|------------------+5+-|
F|----7-----7-----7-----7-----7-----7-----------7-----|-7-7-7-7-7-7-7-7------|
C|----------------------0-----------------0-------(3x)|-0-0-0-0-0-0-0-0------|
G|----------------------------------------------------|-----------------0----|
C|----------------------------------------------------|-----------------0----|

Chorus:
d|-----------------------------------------------------------------------------|
A|-----------------------------------------------------------------------------|
F|-14-14-14-14-14-14-14-149-9-9-9-9-9-9-9/14-14-14-14-14-14-14-1412-12-12-12-|
C|-x--x--x--x--x--x--x--x--x-x-x-x-x-x-x-x-x--x--x--x--x--x--x--x--x--x--x--x--|
G|-12-12-12-12-12-12-12-128-8-8-8-8-8-8-8/12-12-12-12-12-12-12-1210-10-10-10-|
C|-0--0--0--0--0--0--0--0--0-0-0-0-0-0-0-0-0--0--0--0--0--0--0--0--0--0--0--0--|

-------------|
-------------|
-12-12-12-12-|
-x--x--x--x--|
-10-10-10-10-|
-0--0--0--0--|

Verse 2:
d|----------------------------------------0h12----------------------------0---|
A|-----------------0----------------------0-------------------0---------------|
F|-10------10-------------10------10------10------10------10--x---10----------|
C|-----12------12-----12------12------12-------12-----12------12------12----12|
G|----------------------------------------------------------------------------|
C|----------------------------------------------------------------------------|

d|-------------------------------------------12------------------|
A|-----------------0----------------------10---------------------|
F|-10------10-------------10------10-----------------10----------|
C|-----12------12-----12------12------12---------12------12-(3x)-|
G|---------------------------------------------------------------|
C|---------------------------------------------------------------|

Pre-chorus:
d|----------------------------------------------------|-------------------|
A|-4-----4-----4-----4-----4-----4-----4-----4--------|-------------------|
F|----7-----7-----7-----7-----7-----7-----------7-----|-7-7-7-7-7-7-7-7---|
C|----------------------0-----------------0-------(3x)|-0-0-0-0-0-0-0-0-0-|
G|----------------------------------------------------|-----------------0-|
C|----------------------------------------------------|-----------------0-|

Chorus 2:
d|-----------------------------------------------------------------------------|
A|-----------------------------------------------------------------------------|
F|-14-14-14-14-14-14-14-149-9-9-9-9-9-9-9/14-14-14-14-14-14-14-1412-12-12-12-|
C|-x--x--x--x--x--x--x--x--x-x-x-x-x-x-x-x-x--x--x--x--x--x--x--x--x--x--x--x--|
G|-12-12-12-12-12-12-12-128-8-8-8-8-8-8-8/12-12-12-12-12-12-12-1210-10-10-10-|
C|-0--0--0--0--0--0--0--0--0-0-0-0-0-0-0-0-0--0--0--0--0--0--0--0--0--0--0--0--|

---------------------|
---------------------|
-12-12-12-12---------|
-x--x--x--x---0-(2x)-|
-10-10-10-10--0------|
-0--0--0--0---0------|

Breakdown 1:
d|-------------------------------------------------------------|
A|-------------------------------------------------------------|
F|-------------------------------------------------------------|
C|-------------------------------------------------------------|
G|-------------------------------------------------------------|
C|-5-5-5-5--55-5-0-11-11-11-11-11-11-11-11/-5-5-5-5--55-5-0-11-|

Keyboard arranged for guitar
d|------------------------------------------------------------------|
A|------------------------------------------------------------------|
F|------------------------------------------------------------------|
C|-------------------------------------------------------------(3x)-|
G|------------------------------------------------------------------|
C|-13-12-13-12-13-12-13-12-13-12-13-12-13-12-13-12-13-12-13-12------|

Chorus 3:
d|-----------------------------------------------------------------------------|
A|-----------------------------------------------------------------------------|
F|-14-14-14-14-14-14-14-149-9-9-9-9-9-9-9/14-14-14-14-14-14-14-1412-12-12-12-|
C|-x--x--x--x--x--x--x--x--x-x-x-x-x-x-x-x-x--x--x--x--x--x--x--x--x--x--x--x--|
G|-12-12-12-12-12-12-12-128-8-8-8-8-8-8-8/12-12-12-12-12-12-12-1210-10-10-10-|
C|-0--0--0--0--0--0--0--0--0-0-0-0-0-0-0-0-0--0--0--0--0--0--0--0--0--0--0--0--|

-----------------------|
-----------------------|
-12-12-12-12-----------|
-x--x--x--x---0-0-(2x)-|
-10-10-10-10--0-0------|
-0--0--0--0---0-0------|

d|----------------------------------------------------------------------------|
A|----------------------------------------------------------------------------|
F|-14-14-14-14-14-14-14-14-------------------------14-14-14-14-14-14-14-14----|
C|-x--x--x--x--x--x--x--x--10-10-10-10-10-10-10-10-x--x--x--x--x--x--x--x--10-|
G|-12-12-12-12-12-12-12-12-8--8--8--8--8--8--8--8--12-12-12-12-12-12-12-12-8--|
C|-0--0--0--0--0--0--0--0--8--8--8--8--8--8--8--8--0--0--0--0--0--0--0--0--8--|

-------------------------|
-------------------------|
-------------------------|
-10-10-10/12-12-12-12--0-|
-8--8--8-/10-10-10-10--0-|
-8--8--8-/10-10-10-10--0-|

d|----------------------------------------------------------------------------|
A|----------------------------------------------------------------------------|
F|-14-14-14-14-14-14-14-14-------------------------14-14-14-14-14-14-14-1412-|
C|-x--x--x--x--x--x--x--x--10-10-10-10-10-10-10-10-x--x--x--x--x--x--x--x--x--|
G|-12-12-12-12-12-12-12-12-8--8--8--8--8--8--8--8--12-12-12-12-12-12-12-1210-|
C|-0--0--0--0--0--0--0--0--8--8--8--8--8--8--8--8--0--0--0--0--0--0--0--0--0--|

-------------------------|
-------------------------|
-12-12-12-12-12-12-12----|
-x--x--x--x--x--x--x---0-|
-10-10-10-10-10-10-10--0-|
-0--0--0--0--0--0--0---0-|

Breakdown 2:
d|-----------------------------------------------|-------------------|
A|-----------------------------------------------|-------------------|
F|-----------------------------------------------|-------------------|
C|-------------------------------------------(3x)|-------------------|
G|-----------------------------------------------|-------------------|
C|-5-5---5-55-5-0-11-11-11-11-11-11-11-11-12-----|-5-5---5-55-5-0-11-|

let pickups feedback

Outro Riff:
d|-------------------------------------|
A|-------------------------------------|  Stephen kicks in with his 7 string
F|-------------------------------------|  and keeps the riff going while
C|--0-0-1-0--0--65-1--0-0-1-0---8-(2x)-|  Chino plays the next lead riff
G|--0-0-1-0--0--65-1--0-0-1-0---8------|
C|--0-0-1-0--0--65-1--0-0-1-0---8------|

Chino's Lead Riff
d|--12-------|-171717171717--13-------10---------|
A|--10-------|-101010101010--10-13-13----13------|
F|--10-------|-101010101010--10------------------|
C|-----(48x)-|------------------------------(4x)-|
G|-----------|-----------------------------------|
C|-----------|-----------------------------------|

then back to Outro Riff

End Riff:
d|-------------------------------------|
A|-------------------------------------|
F|-------------------------------------|
C|--0-0-1-0--0--65-1--0-0-1-0---8-(2x)-|
G|--0-0-1-0--0--65-1--0-0-1-0---8------|
C|--0-0-1-0--0--65-1--0-0-1-0---8------|

Enjoy!!

************************************

| /   slide up
|    slide down
| h   hammer-on
| p   pull-off
| ~   vibrato
| +   harmonic
| x   Mute note
| b   Bend
| pb  Pre-bend
| br  Bend release
| pbr Pre-bend release
| brb Bend release bend
************************************

2. Rapture

Tabbed by Devin Davis
Really heavy awesome song on The Deftones new album "Saturday Night Wrist"
Tuned a Half step down Drop D
This is how i play it on a 6 string guitar.

|-------------------------------------------------------------|
|-------------------------------------------------------------|
|-------------------------------------------------------------|
|-7-7-7-7-7-8-8-8-8-8-11--11--11-11-11-11--11-11-11-11-11-11--| x 2
|-7-7-7-7-7-8-8-8-8-8-11--11--11-11-11-11--11-11-11-11-11-11--|
|-7-7-7-7-7-8-8-8-8-8-11--11--11-11-11-11--11-11-11-11-11-11--|

|-------------------------------------------------------------|
|-------------------------------------------------------------|
|-------------------------------------------------------------|
|-7-7-7-5-7-8-7-5-7-8-11--11--11-11-11-11--11-11-11-11-11-11--| x 2
|-7-7-7-5-7-8-7-5-7-8-11--11--11-11-11-11--11-11-11-11-11-11--|
|-7-7-7-5-7-8-7-5-7-8-11--11--11-11-11-11--11-11-11-11-11-11--|

|--------------------------------|
|--------------------------------|
|--------------------------------|
|--------------------------------| x4
|-------8-8-8-6-6--6-6-6-6-6-6---|
|-0-0-0--------------------------|

|--------|---------------------------------------|
|--------|---------------------------------------|
|--------|---------------------------------------|
|--------|---------------------------------------| x4
|-8-8-x1-|-------8-8-8-6-6--6-6-0h6h8--6-6-6-6---|
|--------|-0-0-0---------------------------------|

|---------------------------------------------------------|
|---------------------------------------------------------|
|---------------------------------------------------------|
|-5/7-7-7/8-8-8/11-11-11--5/7-7-7/8-8-8/11-11-11-11-11-11-| x2
|-5/7-7-7/8-8-8/11-11-11--5/7-7-7/8-8-8/11-11-11-11-11-11-|
|-5/7-7-7/8-8-8/11-11-11--5/7-7-7/8-8-8/11-11-11-11-11-11-|

Hope you like it.
If your have any questions, email me at crayola_22_88@yahoo.com