9. Korea

Artist: Deftones
Title: Korea
Album: White Pony

By:Yardan Cohen/Brandon Blake
To: www.deftonesworld.com

Tuning: Dropped D then whole step down (CGCFAD)
Everything is in exact rhythm except bridge

Intro
D|---------------------------------------------------------------------------|
A|---------------------------------------------------------------------------|
F|------- 
-------------------------6-6-6-6-------------------------------------------|
C|-9-9-9-9-9-9-9-9-9-9-9-9---------------------------------------------------|
G|-6-6-6-6-6-6-6-6-6-6-6-6-5-5-5-5-------------------------------------------|
C|---------------------------------------------------------------------------|

Chorus (Palm mute all marked with ^ and stop all strings when marked with *)
D|---------------------------------------------------------------------------|
A|---------------------------------------------------------------------------|
F|-- 
---------6---6-----------6---6-----------6---6-----------------------------|
C|-0-0---0---------0-0---0---------0-0---0---------9-9-9-9-9-9-9-9-----------|
G|-0-0---0-5---5---0-0---0-5---5---0-0---0-5---5---6-6-6-6-6-6-6-6-----------|
C|-0-0---0---------0-0---0---------0-0---0-----------------------------------|
   ^     ^   *     ^     ^   *     ^     ^   *
Fill in
D|---------------------------------------------------------------------------|
A|---------------------------------------------------------------------------|
F|-6-6-6-6-------------------------------------------------------------------|
C|---------------------------------------------------------------------------|
G|-5-5-5-5-------------------------------------------------------------------|
C|---------------------------------------------------------------------------|

Verse
D|---------------------------------------------------------------------------|
A|---------------------------------------------------------------------------|
F|------  
------------------------6-6-6-6---------------------------------6-6-6-6|
C|-9-9-9-9-9-9-9-9-9-9-9-9---------9-9-9-9-9-9-9-9-9-9-9-9-------------------|
G|-6-6-6-6-6-6-6-6-6-6-6-6-5-5-5-5-6-6-6-6-6-6-6-6-6-6-6-6-5-5-5-5-----------|
C|---------------------------------------------------------------------------|

Verse (con't.)
D|---------------------------------------------------------------------------|
A|---------------------------------------------------------------------------|
F|------- 
-------------------------6-6-6-6-------------------------------------------|
C - - 
9-9-9-9-9-9-9-9-9-9-9-9---------9-9-9-9-9-9-9-9-9-9-9-9-0-0---------------|
G| 
6-6-6-6-6-6-6-6-6-6-6-6-5-5-5-5-6-6-6-6-6-6-6-6-6-6-6-6-0-0---------------|
C|------------------------------------------------------------------------- 
0-0---------------|
                                                      p.m. ^

Bridge
D|---------------------------------------------------------------------------|
A|---------------------------------------------------------------------------|
F|-------------------------------------------------                  
3-3-3-3-3-3-3-3-----------|
C|-0-0-0-0-0-0-0-0-7-7-7-7-7-7-7-7-5-5-5-5-5-5-5-5-3-3-3-3-3-3-3-3-----------|
G|-0-0-0-0-0-0-0-0-7-7-7-7-7-7-7-7-5-5-5-5-5-5-5-5-1-1-1-1-1-1-1-1-----------|
C|-------------------------------------------------                   
1-1-1-1-1-1-1-1-----------|

Bridge 2 (the rythem is the same as the first bridge)
D|---------------------------------------------------------------------------|
A|---------------------------------------------------------------------------|
F|---------------------------------------------------------------------------|
C|-0---------------7---------------5---------------1-------------------------|
G|-0---------------7---------------5---------------1-------------------------|
C|-0---------------7---------------5---------------1-------------------------|

Order of song:
Intro: 2x
Chorus: 4x
Fill in: 1x
Verse: 2x
Chorus: 2x
Fill in: 1x
Verse: 2x
Chorus: 4x
Bridge: 4x
Bridge 2: 8x
Chorus: 4x

Only play C|-9-| one time on last chorus
          G|-6-|

I'm 100% sure this is right except for both bridges.

Comments, corrections: nofxkid23@hotmail.com
===============================================================================
Page 1 of 11